Hawthorne Heights - Wake Up Call Chords & Tabs

 

Wake Up Call Chords & Tabs

Hawthorne Heights Chords & Tabs

Version: 2 Type: Tab 0 ratings
1 star 2 stars 3 stars 4 stars 5 stars
comments

Wake Up Call Tab

   
The Version of the song on here was good i decided to fill in the blank spots i only
need the acoustic part at the first but i put this up and will edit the rest of the
intro in later.Sorry about the 1st of the tab i just labeled the strings by number but
after i decided to not be lazy and labeled all 6 by note. Special thanks goes to Jared
Romney 4 this tab.
  

  Guitar one intro..i showed where guitar one and two play together.



                         1st|---4-4-----|
                         2nd|-4-----4-0-||------5---|
                         3rd|-----------||--------4-| (x2)
                         4th|-----------||4-6-7-----|

  Guitar 2 intro

4th|-6~~xx|  |-------------------------\-----------------------|
5th|-4~~xx|  |-7-7--10-10--7~-6-4-6-4-7~\---------7~---------7~| (x2)
6th|------|  |---------------------------\9-7-9-7----7-5-7-5---|


Verse:
e|-------------------------------------------------------------------------|
b|-------------------------------------------------------------------------|
g|-------------------------------------------------------------------------|
d|-6xxxxxx-6p4-6-6-4p2-4-4-2-2-4xxxxxx-2xxxxxx-99--------------------------|
a|-4xxxxxx---------------------2xxxxxx-0xxxxxx-77--------------------------|
e|-------------------------------------------------------------------------|


e|-------------------------------------------------------------------------|
b|-------------------------------------------------------------------------|
g|-------------------------------------------------------------------------|
d|-6xxxxxx-6p4-6-6-4p2-4-4-2-2-4xxxxxx-2xxxxxx-----------------------------|
a|-4xxxxxx---------------------2xxxxxx-0xxxxxx-----------------------------|
e|-------------------------------------------------------------------------|

Pre-Chorus:
e|-------------------------------------------------------------------------|
b|-------------------------------------------------------------------------|
g|-------------------------------------------------------------------------|
d|-4~-444-6~-666-7~-777-9~-999---------------------------------------------|
a|-x--xxx-x--xxx-x--xxx-x--xxx---------------------------------------------|
e|-2~-222-4~-444-5~-555-7~-777---------------------------------------------|


e|-------------------------------------------------------------------------|
b|-------------------------------------------------------------------------|
g|-------------------------------------------------------------------------|
d|-4~-444-6~-666-7~-777-9~-------------------------------------------------|
a|-x--xxx-x--xxx-x--xxx-x--------------------------------------------------|
e|-2~-222-4~-444-5~-555-7~-------------------------------------------------|

Chorus:
e|-------------------------------------------------------------------------|
b|----4h5-4-------4h5-4-----------------------4h5-4-------4h5-4------------|
g|----------4-----------4----------6-4-2-4-6--------4-----------4----------|
d|-6-----------4------------2-2222-6-4-2-4-6-----------4-----------2-44444-|
a|-4-----------2------------0-0000-4-2-0-2-4-----------2-----------0-22222-|
e|-------------------------------------------------------------------------|


e|-------------------------------------------------------------------|
b|----4h5-4-------4h5-4-----------------------4h5-4-------4h5-4------|
g|----------4-----------4----------6-4-2-4-6--------4-----------4----|
d|-6-----------4------------2-2222-6-4-2-4-6-----------4-----------2-|
a|-4-----------2------------0-0000-4-2-0-2-4-----------2-----------0-|
e|-------------------------------------------------------------------|
[ Tab from: http://www.guitartabs.cc/tabs/h/hawthorne_heights/wake_up_call_tab_ver_2.html ]
Verse:
e|-------------------------------------------------------------------------|
b|-------------------------------------------------------------------------|
g|-------------------------------------------------------------------------|
d|-6xxxxxx-6p4-6-6-4p2-4-4-2-2-4xxxxxx-2xxxxxx-99--------------------------|
a|-4xxxxxx---------------------2xxxxxx-0xxxxxx-77--------------------------|
e|-------------------------------------------------------------------------|


e|-------------------------------------------------------------------------|
b|-------------------------------------------------------------------------|
g|-------------------------------------------------------------------------|
d|-6xxxxxx-6p4-6-6-4p2-4-4-2-2-4xxxxxx-2xxxxxx-----------------------------|
a|-4xxxxxx---------------------2xxxxxx-0xxxxxx-----------------------------|
e|-------------------------------------------------------------------------|

Pre-Chorus:
e|-------------------------------------------------------------------------|
b|-------------------------------------------------------------------------|
g|-------------------------------------------------------------------------|
d|-4~-444-6~-666-7~-777-9~-999---------------------------------------------|
a|-x--xxx-x--xxx-x--xxx-x--xxx---------------------------------------------|
e|-2~-222-4~-444-5~-555-7~-777---------------------------------------------|

Chorus:
e|-------------------------------------------------------------------------|
b|----4h5-4-------4h5-4-----------------------4h5-4-------4h5-4------------|
g|----------4-----------4----------6-4-2-4-6--------4-----------4----------|
d|-6-----------4------------2-2222-6-4-2-4-6-----------4-----------2-44444-|
a|-4-----------2------------0-0000-4-2-0-2-4-----------2-----------0-22222-|
e|-------------------------------------------------------------------------|


e|-------------------------------------------------------------------|
b|----4h5-4-------4h5-4-----------------------4h5-4-------4h5-4------|
g|----------4-----------4----------6-4-2-4-6--------4-----------4----|
d|-6-----------4------------2-2222-6-4-2-4-6-----------4-----------2-|
a|-4-----------2------------0-0000-4-2-0-2-4-----------2-----------0-|
e|-------------------------------------------------------------------|

 Then it slows down........and builds up
e|---------------------------------------|
b|12----12----9-12-11-12-----------------|
g|10-10-10-10---10-9--10-----------------|
d|-------------------------2-2-2-2-2-2-2-|
a|-------------------------4-4-4-4-4-4-4-|
e|---------------------------------------|

  "wake me up..from this nightmare......"

e|-------------------------------------------------------------------------|
b|-------------------------------------------------------------------------|
g|-------------------------------------------------------------------------|
d|-66666666-44444444-66666666-22222222-66666666-44444444-66666666-44444444-|
a|-44444444-22222222-44444444-00000000-44444444-22222222-44444444-22222222-|
e|-------------------------------------------------------------------------|

e|------------------|                    e|---------------|
b|------------------|                    b|---------------|
g|------------------| (x7) and end with..g|---------------|
d|-44-44-44-4-4-4-4-|                    d|-4-4~~4-4~~----|
a|-66-66-66-6-6-6-6-|                    a|-6-6~~6-6~~----|
e|------------------|                    e|---------------|

And the outro is the chorus...
e|-------------------------------------------------------------------------|
b|----4h5-4-------4h5-4-----------------------4h5-4-------4h5-4------------|
g|----------4-----------4----------6-4-2-4-6--------4-----------4----------|
d|-6-----------4------------2-2222-6-4-2-4-6-----------4-----------2-44444-|
a|-4-----------2------------0-0000-4-2-0-2-4-----------2-----------0-22222-|
e|-------------------------------------------------------------------------|

e|---------------------------------------------------------------------------|
b|----4h5-4-------4h5-4-----------------------4h5-4-------4h5-4--------------|
g|----------4-----------4----------6-4-2-4-6--------4-----------4------------|
d|-6-----------4------------2-2222-6-4-2-4-6-----------4-----------2-44444-6-|
a|-4-----------2------------0-0000-4-2-0-2-4-----------2-----------0-22222-4-|
e|---------------------------------------------------------------------------|
Comments