Hawthorne Heights - Wake Up Call Chords & Tabs

 

Wake Up Call Chords & Tabs

Hawthorne Heights Chords & Tabs

Version: 1 Type: Tab 0 ratings
1 star 2 stars 3 stars 4 stars 5 stars
comments

Wake Up Call Tab

I could only figure out some of the parts. I can't quite figure out the intro but i'll
give you this...

Verse 2x (Through arteries untold)
e|-------------------------------------------------------------------------|
b|-------------------------------------------------------------------------|
g|-------------------------------------------------------------------------|
d|-6xxxxxx-6p4-6-6-4p2-4-4-2-2-4xxxxxx-2xxxxxx-999-------------------------|
a|-4xxxxxx---------------------2xxxxxx-0xxxxxx-777-------------------------|
e|-------------------------------------------------------------------------|
[ Tab from: http://www.guitartabs.cc/tabs/h/hawthorne_heights/wake_up_call_tab.html ]
Pre-Chorus (So spill my blood, SO SPILL MY BLOOD!!!) 2x
e|-------------------------------------------------------------------------|
b|-------------------------------------------------------------------------|
g|-------------------------------------------------------------------------|
d|-4~-444-6~-666-7~-777-9~-999---------------------------------------------|
a|-x--xxx-x--xxx-x--xxx-x--xxx---------------------------------------------|
e|-2~-222-4~-444-5~-555-7~-777---------------------------------------------|

Chorus (Say "So long", say "Goodnight" and just hold out your hand)x4
e|-------------------------------------------------------------------------|
b|----4h5-4-------4h5-4-----------------------4h5-4-------4h5-4------------|
g|----------4-----------4---------------------------4-----------4----------|
d|-6-----------4------------2-2222-6-4-2-4-6-----------4-----------2-44444-|
a|-4-----------2------------0-0000-4-2-0-2-4-----------2-----------0-22222-|
e|-------------------------------------------------------------------------|

that's really all i have...it sounds really good when you play it to the song. I just
mess around with the three chords for the bridge and outro..don't have it exactly
down..but this is good enough for now.
Late
Comments