Hawthorne Heights - This Is Who We Are Chords & Tabs

 

This Is Who We Are Chords & Tabs

Hawthorne Heights Chords & Tabs

Version: 3 Type: Tab

This Is Who We Are Tab

   
ok, this is my first tab and im 12 so gimmie a break if i do one thing wrong. But, if i 
something wrong on the tab, e-mail me at herkess.mis@gaggle.net

Band: Hawthorne Heights
Song: This is who we Are
Album: If Only you Were Lonely
Tuning: E A D G B E

Symbols:
^ = Hammer on/Pull off
. = Muted (this will be under the music ex. ------|
~ = Let ring                                ------|
\ = slide down                              ------|
                                            --5---|
                                            --5---|
                                            --3---|
                                              .


Intro

|--------------------------------------------------------------------------|
|--------------------------------------------------------------------------|
|--------------------------------------------------------------------------|
|--------------------------------------------------------------------------|
|--------9-9^10---------9-9^10-----------------12-12^14-------12-12^14-----|
|---0-0------------0-0---------------0-0-0-0-------------0-0-----------0-0-|


--------------------------------------------|                 |------|
--------------------------------------------|                 |------|
--5-5-5-5-5-5-555------7-7-7-7-7-7----------|                 |------|
--5-5-5-5-5-5-533------7-7-7-7-7-7-------2~-|REPEAT           |--2-2-|
--3-3-3-3-3-3-333------5-5-5-5-5-5-------2~-|(only use ~ on   |--2-2-|
-----------------------------------5-3-2-0~-| 2nd time        |--0-0-|
                                               repeating)

Verse

|---------------------------------------|
|---------------------------------------|
|---9----9--9-9--99---7---repeat 9 times|
|---9----9--9-9--99---7-----------------|
|---7----7--7-7--77---5-----------------|
|---------------------------------------|


Pre Chorus
|-0~---0~---|
|-0~---1~---|
|-0~---0~---|
|-2~---2~---|
|-2~---3~---|
|-----------|


Chorus

|-------------------------------------------------------------|
|-------------------------------------------------------------|
|-------------------------------------------------------------|
|-------------------------------------------------------------|
|--------9-10-------9-10-7---------12-14------12-14-10--------|
|---0-0--------0-0-----------0-0-0--------0-0-----------------|

------------------------------------------|              |-------|
------------------------------------------|              |-------|
--5-5-5-5-5-5-555------7-7-7-7-7-7--------|              |-------|
--5-5-5-5-5-5-533------7-7-7-7-7-7--------| REPEAT       |--2-2--|
--3-3-3-3-3-3-333------5-5-5-5-5-5--------|              |--2-2--|
-----------------------------------5-3-2-0|              |--0-0--|


Verse


|-----------------------------------------------------------------|
|-----------------------------------------------------------------|
|---9----9-9-9-9-9-9-9-9-9-9-9-9----9----9-9-9-9-9-9-9-9-9-9-9-9--|
|---9----9-9-9-9-9-9-9-9-9-9-9-9----9----9-9-9-9-9-9-9-9-9-9-9-9--|
|---7----7-7-7-7-7-7-7-7-7-7-7-7----7----7-7-7-7-7-7-7-7-7-7-7-7--|
|-----------------------------------------------------------------|
         . . . . . . . . . . . .         . . . . . . . . . . . .


----------------------------------------------------------------|
----------------------------------------------------------------|
--5----5-5-5-5-5-5-5-5-5-5-5-5---7----7-7-7-7-7-7-7-7-7-7-7-7---|
--5----5-5-5-5-5-5-5-5-5-5-5-5---7----7-7-7-7-7-7-7-7-7-7-7-7---|
--3----3-3-3-3-3-3-3-3-3-3-3-3---5----5-5-5-5-5-5-5-5-5-5-5-5---|
----------------------------------------------------------------|
       . . . . . . . . . . . .        . . . . . . . . . . . .

Pre Chorus
|--0~-----0~--|
|--0~-----1~--|
|--0~-----0~--|
|--2~-----2~--|
|--2~-----3~--|
|-------------|


Chorus

|-------------------------------------------------------------|
|-------------------------------------------------------------|
|-------------------------------------------------------------|
|-------------------------------------------------------------|
|--------9-10-------9-10-7---------12-14------12-14-10--------|
|---0-0--------0-0-----------0-0-0--------0-0-----------------|
[ Tab from: http://www.guitartabs.cc/tabs/h/hawthorne_heights/this_is_who_we_are_tab_ver_3.html ]
--------------------------------------------|
--------------------------------------------|REPEAT
--5-5-5-5-5-5-555------7-7-7-7-7-7----------|
--5-5-5-5-5-5-533------7-7-7-7-7-7-------2~-|(Only use the ~ on sencond
--3-3-3-3-3-3-333------5-5-5-5-5-5-------2~-|time through. And when u
-----------------------------------5-3-2-0~-|do, hold it for a long time.)


Verse

|--------------------------------------------------------------------------|
|--------------------------------------------------------------------------|
|----------------------------------------------------5-5-5-5-5---5-5--5-5--|
|----2-2-2-2-2---2-2--2-2-----2-2-2-2-2---2-2--2-2---5-5-5-5-5---5-5--5-5--|
|----2-2-2-2-2---2-2--2-2-----2-2-2-2-2---2-2--2-2---3-3-3-3-3---3-3--3-3--|
|----0-0-0-0-0---0-0--0-0-----0-0-0-0-0---0-0--0-0-------------------------|
     . . . . .   . .  . .     . . . . .   . .  . .   . . . . .   . .  . .


---------------------------------|
---------------------------------|
---5-5-5-5-5---2-2-2-2---7-7-7---|
---5-5-5-5-5---2-2-2-2---7-7-7---|
---3-3-3-3-3---0-0-0-0---5-5-5---|
---------------------------------|
   . . . . .   . . . .   . . .

--------------------------------------------------------------------------|
--------------------------------------------------------------------------|
----------------------------------------------------5-5-5-5-5---5-5--5-5--|
----2-2-2-2-2---2-2--2-2-----2-2-2-2-2---2-2--2-2---5-5-5-5-5---5-5--5-5--|
----2-2-2-2-2---2-2--2-2-----2-2-2-2-2---2-2--2-2---3-3-3-3-3---3-3--3-3--|
----0-0-0-0-0---0-0--0-0-----0-0-0-0-0---0-0--0-0-------------------------|
    . . . . .   . .  . .     . . . . .   . .  . .   . . . . .   . .  . .

-----------------------------|
-----------------------------|
----5-5-5-5-5---2-2-2-2---7--|
----5-5-5-5-5---2-2-2-2---7--|
----3-3-3-3-3---0-0-0-0---5--|
-----------------------------|
    . . . . .   . . . .

|---------------------------------------------------------------------------|
|---------------------------------------------------------------------------|
|----------------------------------------------------5-5-5-5-5---5-5--5-5---|
|----2-2-2-2-2---2-2--2-2-----2-2-2-2-2---2-2--2-2---5-5-5-5-5---5-5--5-5---|
|----2-2-2-2-2---2-2--2-2-----2-2-2-2-2---2-2--2-2---3-3-3-3-3---3-3--3-3---|
|----0-0-0-0-0---0-0--0-0-----0-0-0-0-0---0-0--0-0--------------------------|


-----------------------------|
-----------------------------|
----5-5-5-5-5---2-2-2-2---7--|
----5-5-5-5-5---2-2-2-2---7--|Repeat
----3-3-3-3-3---0-0-0-0---5--|
-----------------------------|

Ther rest of the song

|-------------------------------------------------------------------------|
|-------------------------------------------------------------------------|
|-------------------------------------------------------------------------|
|-------------------------------------------------------------------------|
|--------9-9^10---------9-9^10-----------------12-12^14-------12-12^14----|
|---0-0------------0-0---------------0-0-0-0--------------0-0-------------|

-----------------------------------------------------------------------------|
-----------------------------------------------------------------------------|
-----------------------------------------------------------------------------|
-----------------------------------------------------------------------------|
----------9-9^10---------9-9^10-------------12-12^14-------12-12^14----------|
-0-0-0-0----------0-0------------0-0-0-0--------------0-0------------0-0-0-0-|

|-------------------------------------------------------------|
|-------------------------------------------------------------|
|-------------------------------------------------------------|
|-------------------------------------------------------------|
|--------9-10-------9-10-7---------12-14------12-14-10--------|
|---0-0--------0-0-----------0-0-0--------0-0-----------------|

-------------------------------------------|
-------------------------------------------|REPEAT
--5-5-5-5-5-5-555------7-7-7-7-7-7---------|
--5-5-5-5-5-5-533------7-7-7-7-7-7---------|
--3-3-3-3-3-3-333------5-5-5-5-5-5---------|
-----------------------------------5-3-2-0-|


Very Ending

|---------------------------|
|---------------------------|
|------------------11--12\--|
|------------------12--14\--|
|-------9-10----------------|
|--0-0--------0-0-----------|