Hawthorne Heights - The Transition Chords & Tabs

 

The Transition Chords & Tabs

Hawthorne Heights Chords & Tabs

Version: 2 Type: Tab 0 ratings
1 star 2 stars 3 stars 4 stars 5 stars
comments

The Transition Tab

Ok...My first tab, so don't be too harsh.
Questions or Comments: ILoveCanada1121@hotmail.com



 Intro:
e|-----------------------------------------|
B|-----------------------------------------|
G|-------------9-6--xxx-4--xx-6--xxx-2---6-|
D|-------------9-6--xxx-4--xx-6--xxx-2---6-|
A|-------------7-4--xxx-2--xx-4--xxx-0---4-|
E|-5-4-0-7-5-0-----------------------------|
 Intro Lead:
e|-7-0--7-0---|--|-2-2-2-2-4--------------|
B|----------4-|--|------------5-4-0-5-4-0-|
G|------------|x3|------------------------|
D|------------|--|------------------------|
A|------------|--|------------------------|
E|------------|--|------------------------|


 Verse:
  "So Here We Are..."    "Hey, Rise And Shine..."
e|------------------|   |-----------------------------------------------------------------------|
B|------------------|   |-----------------------------------------------------------------------|
G|-4---6---6-4------|   |-6-6---------------6-6------4-4------6-6---------------6-6------4------|
D|-4---6---6-4------|   |-6-6(x14)-7-7------6-6(x14)-4-4(x14)-6-6(x14)-7-7------6-6(x14)-4(x16)-|
A|-2---4---4-2------|   |-4-4------7-7(x14)-4-4------2-2------4-4------7-7(x14)-4-4------2------|
E|------------------|   |---*------5-5--------*--------*--------*------5-5--------*-------------|
                                     *                                   *
 Verse Lead:
  "So Here We Are..."
e|------------------|
B|-5-4-0---5-4-0----|
G|------------------|x2
D|------------------|
A|------------------|
E|------------------|

 Chorus:
  "As Days Go By.."  "I'll Wait For You..."   "As Days Go By.."  "I Won't Let Go"
e|-----------|      |---------------------|  |-----------|      |---------------------|
B|-----------|      |---------------------|  |-----------|      |---------------------|
G|-----------|      |-6-xx--4-xx-2---xxxx-|  |-----------|      |-6-xx--4-xx-2---xxxx-|
D|-4---6---7-|      |-6-xx--4-xx-2---xxxx-|  |-4---6---7-|      |-6-xx--4-xx-2---xxxx-|
A|-4---6---7-|      |-4-xx--2-xx-0---xxxx-|  |-4---6---7-|      |-4-xx--2-xx-0---xxxx-|
E|-2---4---5-|      |---------------------|  |-2---4---5-|      |---------------------|

 Chorus Lead:
  "As Days Go By..."             "I'll Wait For You"    "As Days Go By..."             "I Won't Let Go"
e|-12-----12-------9-7-----0h7-||---------------------||-12-----12-------9-7---------||-9---11---12---|
B|----9------9-7-------5-------||---------------------||----9------9-7-------5---5p0-||---------------|
G|-----------------------------||-6-xx--4-xx-2---xxxx-||-----------------------------||---------------|
D|-----------------------------||-6-xx--4-xx-2---xxxx-||-----------------------------||---------------|
A|-----------------------------||-4-xx--2-xx-0---xxxx-||-----------------------------||---------------|
E|-----------------------------||---------------------||-----------------------------||---------------|
[ Tab from: http://www.guitartabs.cc/tabs/h/hawthorne_heights/the_transition_tab_ver_2.html ]
 Post-Chorus:
  "These Things Remain..."
e|-----------------------------------------------|
B|-----------------------------------------------|
G|-6-6---6-6---6-6---6-6---2-2---2-2---2-2---2-2-|
D|-6-6---6-6---6-6---6-6---2-2---2-2---2-2---2-2-|
A|-4-4---4-4---4-4---4-4---0-0---0-0---0-0---0-0-|
E|-----------------------------------------------|

 Post-Corus Lead:
  "These Things Remain.."
e|-----------7-----------------------7---|
B|-4-0-4-0-----5-4-0---4-0-4-0---4-0---5-|
G|---------------------------------------|x2
D|---------------------------------------|
A|---------------------------------------|
E|---------------------------------------|

 Break 1:
 "Please Don't Ever..."(Comes In With 2nd Part Of Lead)
e|----------|--|-------------|--|------------|
B|----------|--|-------------|--|------------|
G|-6-6------|x2|-4-/6-6------|--|-2-2------4-|
D|-6-6(x14)-|--|-4-/4-6(x14)-|x2|-2-2(x14)-4-|
A|-4-4------|--|-2-/4-4------|--|-0-0------2-|
E|---*------|--|------*------|--|---*--------|

 Break 1 Lead:
  "Please Don't ever..."           
e|-----7---|--|-4-------4-------4-------4-----|--|-7------7------7---------|--|-------|--|-4-0-2-|
B|-4-0---5-|--|---4-5-----4-5-----4-5-----4-0-|--|---5-4----5-4----5-4-0---|--|-7-0-4-|--|-------|
G|---------|x8|-------------------------------|x2|-----------------------1-|x2|-------|x4|-------|x4
D|---------|--|-------------------------------|--|-------------------------|--|-------|--|-------|
A|---------|--|-------------------------------|--|-------------------------|--|-------|--|-------|
E|---------|--|-------------------------------|--|-------------------------|--|-------|--|-------|

 Break 2:
  "Shine On..."
e|----------------------------------------------------------------|
B|----------------------------------------------------------------|
G|----------------------------------------------------------------|x3
D|-4-4--4-4-4-4-4--4-4--4-4-4-4-4--6-6--6-6-6-6-6--6-6--6-6-6-6-6-|
A|-4-4--4-4-4-4-4--4-4--4-4-4-4-4--6-6--6-6-6-6-6--6-6--6-6-6-6-6-|
E|-2-2--2-2-2-2-2--2-2--2-2-2-2-2--4-4--4-4-4-4-4--4-4--4-4-4-4-4-|
   * *  * * * * *  * *  * * * * *  * *  * * * * *  * *  * * * * *
 Break 2 Lead:
  "Shine On..."(Comes In On Rythm Guitar's 3rd Time)
e|-----------7-7-7----2-2-----|
B|-9b---9b---------9------4-4-|
G|----------------------------|
D|----------------------------|
A|----------------------------|
E|----------------------------|

 End:
  "As Days Go By..."
e|-------------------------|
B|-------------------------|
G|-------------------------|(Play Till Fadeout)
D|-4-4--6-6--7-7--9-9--4-4-|
A|-4-4--6-6--7-7--9-9--4-4-|
E|-2-2--4-4--5-5--7-7--2-2-|

 Song Order:
     Intro   
     Verse       
     Chorus 
     Post-Chorus
     Break 1
     Chorus
     Post-Chorus
     Break 1(Rythm  plays each chord only once, listen to the song and you'll see what I mean)
     Break 2 
     Chorus(Play 2nd half only)
     End
Comments