Hawthorne Heights - The Transition Chords & Tabs

 

The Transition Chords & Tabs

Hawthorne Heights Chords & Tabs

Version: 1 Type: Tab 0 ratings
1 star 2 stars 3 stars 4 stars 5 stars
comments

The Transition Tab

This is in a standard tuning. I tried to get it exactly as possible.
Their are other guitar parts but i just learned the rythym. Here it is.
I LOVE HAWTHORNE HEIGHTS! Just a reminder...this is my first tab so if
i dont do it right...sorry.


Intro

E]---5h4p0---5h4p0----]
A]--------------------]
D]--------------------]
G]--------------------]
B]--------------------]
E]--------------------]

Intro Contd.

E]-------x-x-x--------]
A]-4-----x-x-x---2----]
D]-6-----x-x-x---4----]
G]-6-----x-x-x---4----]
B]-------x-x-x--------]
E]-------x-x-x--------]

E]-x-x-x------x-x-x---5-]
A]-x-x-x---4--x-x-x---7-]
D]-x-x-x---6--x-x-x---7-]
G]-x-x-x---6--x-x-x-----]
B]-x-x-x------x-x-x-----]
E]-x-x-x------x-x-x-----]

Verse strum as many times as needed. You dont have to mute if you dont want to it sounds like they do.

E]-------x-x-x-------x-x-x]
A]-4-----x-x-x---2---x-x-x]
D]-6-----x-x-x---4---x-x-x]
G]-6-----x-x-x---4---x-x-x]                  Play 2x except on second time 
B]-------x-x-x-------x-x-x]                   mute picking
E]-------x-x-x-------x-x-x]
[ Tab from: http://www.guitartabs.cc/tabs/h/hawthorne_heights/the_transition_tab.html ]
E]-------x-x-x---5--------]
A]-4-----x-x-x---7--------]
D]-6-----x-x-x---7--------]
G]-6-----x-x-x------------]
B]-------x-x-x------------]
E]-------x-x-x------------]

Pre-Chorus

E]----x-x-x---5--x-x-x-----x-x-x-----]
A]-4--x-x-x---7--x-x-x---4-x-x-x---2-]
D]-6--x-x-x---7--x-x-x---6-x-x-x---4-]
G]-6--x-x-x------x-x-x---6-x-x-x---4-]
B]----x-x-x------x-x-x-----x-x-x-----]
E]----x-x-x------x-x-x-----x-x-x-----]

Chorus

E]x-x-x--2---4-5-----------------]
A]x-x-x--4---6-7---4---2---0-----]                    Play 2x
D]x-x-x--4---6-7---6---4---2-----]
G]x-x-x------------6---4---2-----]
B]x-x-x--------------------------]
E]x-x-x--------------------------]


Weird little bridge thing

E]------------5-5--5-5--------------]
A]--4-4--4-4--7-7--7-7---------2----]
D]--6-6--6-6--7-7--7-7---------4----]
G]--6-6--6-6-------------------4----]
B]----------------------------------]
E]----------------------------------]

Play it again except strum a lil dif.

Chorus

Bridge

End With

E]--2-2--4-4--5-5--7-7--2-2--------]
A]--4-4--6-6--7-7--9-9--4-4--------]
D]--4-4--6-6--7-7--9-9--4-4--------]
G]---------------------------------]
B]---------------------------------]
E]---------------------------------]

WELL thats basically it. If its wrong then maybe some other tabs will be submitted
for this song but i tried my hardest. Enjoy! EMO ROCKS!
Comments