Hawthorne Heights - The Transition Chords & Tabs

 

The Transition Chords & Tabs

Hawthorne Heights Chords & Tabs

Version: 1 Type: Bass Tab

The Transition Bass Tab

This is a fun and easy song for bass,good for beginners such as me
this song isnt 100% but i think im close. I made this tab cuz no one else made one.

Intro
G----------------|
D----------------|
A----2h4---------|
E----------------|

G------------------------------------------------|
D------------------------------------------------|
A----2-------4-----0------4------2------4------0-|
E-000----000----000----000----000----000----000--|

Verse x2
G----------------------------------------------------------------|
D----------------------------------------------------------------|
A4444444444444444000000000000000044444444444444442222222222222222
E----------------------------------------------------------------

Chorus x2
G--------------------------|
D--------------------------|
A-----------4-----2------0-|
E2----45-------------------|
[ Tab from: http://www.guitartabs.cc/tabs/h/hawthorne_heights/the_transition_btab.html ]
After Chorus
G-----------------------------------------------------|
D-----------------------------------------------------|
A44-----44-----44-----44-----00-----00-----00------00-|
E-----------------------------------------------------|

Play verse
Play chorus

Then play this
G---------------------------------------------------------------------------|
D---------------------------------------------------------------------------|
A44-----44-----44-----44-----00-----00-----00-----00---0~---00~---00~---00~-|
E---------------------------------------------------------------------------|

Solo x3
G------------------------------------------|
D------------------------------------------|
A44-4-444---44-4-444---00-0-000---00-0-000-|
E------------------------------------------|

Play chorus 1x only

Ending
G------------------|
D------------------|
A---------------22-|
E22---44---55------|
Play until song ends

Yup thats pretty easy right,just get the timing right.
-Leeroy Benitez