Hawthorne Heights - Silver Bullet Chords & Tabs

 

Silver Bullet Chords & Tabs

Hawthorne Heights Chords & Tabs

Version: 3 Type: Tab 0 ratings
1 star 2 stars 3 stars 4 stars 5 stars
comments

Silver Bullet Tab

   
THE ENTIRE SONG!
simple enough for 1 guitar

E--------------|
B--------------|
G--------------|
D-6-66-66-2----|
A-6-66-66-2----|
E-4-44-44-0----|

E-------------------------------------------------|
B----------------------4p0-5p0-7p0-5p0-4p0-5p0-12-|
G---3/4---3-3/4---(2x)----------------------------|
D-6-X/X-6-X-X/X-2---------------------------------|
A-6-1/2-6-1-1/2-2---------------------------------|
E-4-----4-------0---------------------------------|
[ Tab from: http://www.guitartabs.cc/tabs/h/hawthorne_heights/silver_bullet_tab_ver_3.html ]
E-----------------------------------------------------------------|
B-----------------------------------------------------------------|
G---------------------------------------------------------4444444-|
D-6666666-2222222-6666666-4444444-2222222-4444444-6666666-4444444-|
A-6666666-2222222-6666666-4444444-2222222-4444444-6666666-2222222-|
E-4444444-0000000-4444444-2222222-0000000-2222222-4444444---------|
  ******* ******* ******* ******* ******* ******* ******* *******

E------------------------------------------------------------|
B------------------------------------------------------------|
G----88888-------------------------44444---------------------|
D-66-XXXXX--2-66------66------2-66-XXXXX-2-66------66------4-|
A-66-66666--2-66----2-66----2-2-66-22222-2-66----2-66----2-4-|
E-44------S-0-44-2h4--44-2h4--0-44-------0-44-2h4--44-2h4--2-|

E-------------------------------------------|
B-------------------------------------------|
G---3/4-3/4------------3/4-3/4--------------|
D-2-X/X-X/X-4-66-44-22-X/X-X/X-444444444444-|
A-2-1/2-1/2-4-66-44-22-1/2-1/2-444444444444-|
E-0---------2-44-22-00---------222222222222-|
                               ************

*=PM
s=slide

should be it ill chek it when i have a guitar in front of me. there are some small parts
left out but they are easy enough to figure out.
Comments