Hawthorne Heights - Silver Bullet Chords & Tabs

 

Silver Bullet Chords & Tabs

Hawthorne Heights Chords & Tabs

Version: 2 Type: Tab 0 ratings
1 star 2 stars 3 stars 4 stars 5 stars
comments

Silver Bullet Tab

Song:Silver Bullet
Tabed By: Matt Johnston
Artist: Hawthorne Heights

Intro
E|--------------------------------------------------------------|
B|--------------------------------------------------------------|
G|-------------------------------------------8-9-11-9-8-9-11----|
D|-4--44--444--2~----44444444--22222222---9-9-9-9--9-9----------|
A|-4--44--444--2~----44444444--22222222-------------------------|
E|-6--66--666--0~----66666666--00000000-------------------------|
   .  ..  ...  .     ........  ........  ...................
[ Tab from: http://www.guitartabs.cc/tabs/h/hawthorne_heights/silver_bullet_tab_ver_2.html ]
Verse1
E|------------------------------------------------------------|
B|------------------------------------------------------------|
G|------------------------------------------------------------|
D|-4444444--2222222--44444444--2222222--22222222--22222222----|
A|-4444444--2222222--44444444--2222222--22222222--22222222----|
E|-6666666--0000000--66666666--4444444--00000000--44444444----|

E|-----------------------------------------------------------|
B|-----------------------------------------------------------|
G|-----------------------------------------------------------|
D|-6666--999--2~---4444--999--4~-------------444--444--2~----|
A|-6666--999--2~---4444--999--4~---PlayThisx2444--444--2~----|
E|-4444--777--0~---6666--777--2~-------------666--222--0~----|
   ....  ...  .    ....  ...  .              ...  ...  .

Well This Is It...For Now. Its Pretty Easy, if you have any corrections email me 
Thanks, Cyah Hope u enjoy the tab
Comments