Hawthorne Heights - Silver Bullet Chords & Tabs

 

Silver Bullet Chords & Tabs

Hawthorne Heights Chords & Tabs

Version: 2 Type: Bass Tab 0 ratings
1 star 2 stars 3 stars 4 stars 5 stars
comments

Silver Bullet Bass Tab

   
Band: Hawthorne Heights
Song: Silver Bullet
Tabber: 555_Maggot_666

Song is Standard tuning (E,A,D,G)
\=Slide Down (Lower)
~=Let Note Ring
 
Intro
G|----------------|
D|----------------| x3
A|----------------|
E|-4--44--44-0~---|

G|-----------------------------------------|
D|-----------------------------------------|
A|-----------------------------------------|
E|-444--44444--4444--0000--00000--0000-----|

After guitar part

Verse
G|----------------------------------------------------------------------|
D|----------------------------------------------------------------------|
A|----------------------------------------------------------------------|
E|-4444444-0000000-4444444-222222-0-0000000-2222222-4-4444444-0000000-4-|

G|------------------------------------------------|
D|------------------------------------------------|
A|------------------------------------------------|
E|-4444444-222222-0000000-2222222--4-4--10\--0~---|

G|---------------------------------------------|
D|---------------------------------------------|
A|------2-------2------------------------------|
E|-4424----4424----0~------4-4--7-7-7--12\--0~-|

G|--------------------------------|
D|--------------------------------|
A|------2-------2-----------------|
E|-4424----4424----2~---444-222---|

Chorus
G|----------------------------------------------------|
D|----------------------------------------------------|
A|----------------------------------------------------|
E|-00--44-44--22--44--22--00--44--44-2222222222222222-|
[ Tab from: http://www.guitartabs.cc/tabs/h/hawthorne_heights/silver_bullet_btab_ver_2.html ]
G|----------------------------------------------|
D|----------------------------------------------|
A|----------------------------------------------|
E|-00--44--44--22--44--22--[Pause]-0--44--44-2~-|

Verse
G|----------------------------------------------------------------------|
D|----------------------------------------------------------------------|
A|----------------------------------------------------------------------|
E|-4444444-0000000-4444444-222222-0-0000000-2222222-4-4444444-0000000-4-|

G|------------------------------------------------|
D|------------------------------------------------|
A|------------------------------------------------|
E|-4444444-222222-0000000-2222222--4-4--10\--0~---|

G|---------------------------------------------|
D|---------------------------------------------|
A|------2-------2------------------------------|
E|-4424----4424----0~------4-4--7-7-7--12\--0~-|

G|--------------------------------|
D|--------------------------------|
A|------2-------2-----------------|
E|-4424----4424----2~---444-222---|

Bridge
G|-------------|
D|-------------|
A|-------------|
E|-4--44-44-0~-|

G|--------------------------------|
D|--------------------------------| x2
A|--------------------------------|
E|-444-44444-4444-0000-00000-0000-|

D|-----------------------------------|
G|-----------------------------------|
A|-----------------------------------|
E|-444-4444-444-444-000-0000-000-000-|

G|----------------------------------|
D|----------------------------------|
A|----------------------------------|
E|-444-4444-444-444-000-000-444-222-|

Chorus 

G|---------|
D|---------|
A|---------|
E|-444-222-|

Chorus

Outro
G|---------|
D|---------|
A|---------|
E|-4-44-4~-|

This is such a fun song to play!! Especially when you can get the right timing! ENJOY!!
Comments