Hawthorne Heights - Screeenwriting An Apology Chords & Tabs

 

Screeenwriting An Apology Chords & Tabs

Hawthorne Heights Chords & Tabs

Version: 1 Type: Tab 0 ratings
1 star 2 stars 3 stars 4 stars 5 stars
comments

Screeenwriting An Apology Tab

Intro/verse1 "she called last night..."
e--------------------------------------------------]
b----4----4----4----4------------------------------]
g------3---3----3----3--3/4-----4-----4-----4------]
d-------4----4----4---4----4-3----4-3---4-3---4-3--]repeat
a--------------------------------------------------]
e--------------------------------------------------]

I'll see you through the night...
e-------------------------------------]
b-------------------------------------]
g-8888--8888-8888---4444-4444--4444---]
d-xxxx--xxxx-xxxx---xxxx-xxxx--xxxx---]repeat
a-6666--6666-6666---2222-2222--2222---]
e-------------------------------------]

"you want me still because im breathing..."
e----------------------------------------------]
b----------------------------------------------]
g-4444--4444--4444----8888--8888--8888---------]
d-4444--4444--4444----8888--8888--8888---------]
a-2222--2222--2222----6666--6666--6666---------]
e----------------------------------------------]


e----------------------------]
b----------------------------]
g-88--x--4--44--6------------]
d-88--x--4--44--6------------]repeat
a-66--x--2--22--4------------]
e----------------------------]


lets exchange the sunshine...

e--------------------------------------------------]
b--------------------------------------------------]
g-8-8888--8--8888-6-6666-4-4444-6-6666-4-6-8-------]
d-8-8888--8--8888-6-6666-4-4444-6-6666-4-6-8-------]repeat
a-6-6666--6--6666-4-4444-2-2222-4-4444-2-4-6-------]
e--------------------------------------------------]
    ....     ....   ....   ....   .... 


"you know..."
e----------------------------]
b----------------------------]
g-88--x--4--44--6------------]
d-88--x--4--44--6------------]repeat
a-66--x--2--22--4------------]
e----------------------------]

"scene  missing fade to black..."
e----------------------------------]
b----------------------------------]
g-88888--44444--66666--------------]
d-88888--44444--66666--------------]repeat
a-66666--22222--44444--------------]
e----------------------------------]

"Just wake me when its over..."
e--------------------------------------------------]
b--------------------------------------------------]
g-8-8888--8--8888-6-6666-4-4444-6-6666-4-6-8-------]
d-8-8888--8--8888-6-6666-4-4444-6-6666-4-6-8-------]repeat
a-6-6666--6--6666-4-4444-2-2222-4-4444-2-4-6-------]
e--------------------------------------------------]
    ....     ....   ....   ....   .... 
[ Tab from: http://www.guitartabs.cc/tabs/h/hawthorne_heights/screeenwriting_an_apology_tab.html ]
"the one that got away..."
e------------------------------------------]
b---------[YOU KNOW ME TOO WELL]-----------]
g-44444------88-x-4--44-6------------------]
d-44444------88-x-4--44-6------------------]REPEAT SECOND PART
a-22222------66-x-2--22-4------------------]"you know me too well w/o
e------------------------------------------]distortion


"Again!"
e------------------------------------------------]
b------------------------------------------------]
g-6--8888-8888-8888-4444-4444-4444---------------]
d-6--8888-8888-8888-4444-4444-4444---------------]repeat
a-4--6666-6666-6666-2222-2222-2222---------------]
e------------------------------------------------]

chorus
"you want me still because im breathing..."
e----------------------------------------------]
b----------------------------------------------]
g-4444--4444--4444----8888--8888--8888---------]
d-4444--4444--4444----8888--8888--8888---------]
a-2222--2222--2222----6666--6666--6666---------]
e----------------------------------------------]


"you know..."
e----------------------------]
b----------------------------]
g-88--x--4--44--6------------]
d-88--x--4--44--6------------]repeat
a-66--x--2--22--4------------]
e----------------------------]

"shes sorry and i can tell..."
e----------------------------------]
b----------------------------------]
g-88888--44444--66666--------------]
d-88888--44444--66666--------------]repeat
a-66666--22222--44444--------------]
e----------------------------------]

ending
e-----------------]
b-----------------]
g-8-8-8-8-8~------]
d-8-8-8-8-8~------]
a-6-6-6-6-6~------]
e-----------------]


lyrics
"Screenwriting An Apology"

She called last night still waiting for a reply.
This static contact is pulling us apart.
Please hang up on tight,
I'll see you through the night.

You have me still be because I'm breathing,
Although it has slowed down.
Please don't cry because I'm leaving.
I hope I see you soon.

Exchange the sunshine for brown eyes and dark skies,
Replace this dull life with you.
I Know it's tomorrow, 
She's waiting for something to feel alive. 

You know me too well,
She's sorry and I can tell.
Scene missing, fade to black.
You're acting all this out again,

Just wake me when it's over,
When the curtains raise,
It's time to move on.
Exit now, credits rolling,
The girl who stole my heart.
The one that got away

Okay there ya go any questions comments etc my email is entirely_smooth_chick@hotmail.com.
Comments