Hawthorne Heights - Pens And Needles Chords & Tabs

 

Pens And Needles Chords & Tabs

Hawthorne Heights Chords & Tabs

Version: 1 Type: Bass Tab

Pens And Needles Bass Tab

Quite easy song to play.. but it's hard to hear the bass in the song.
Really fun.. good luck. :)

G----------------------------------|
D----------------------------------|
A--4-------------------------------|
E-------0---5555--7777-------------|


G---------------------------------|
D---------------------------------|
A--4------------------------------|
E-------0---5555--7---------------|


G----------------------------------|
D----------------------------------|
A--444444--------------------------| x3
E--------00--000055555557--7777----|


G-------------------------------------------|
D-------------------------------------------|
A--444444------------------------4----4-----|
E--------00--000055555557--7777-------------|


G-----------------------------------|
D-----------------------------------|
A--4~-------------------------------| x2
E------0~---5555--7777--------------|


G----------------------------------|
D----------------------------------|
A--444444--------------------------| x3
E--------00--000055555557--7777----|


G-------------------------------------------|
D-------------------------------------------|
A--444444------------------------4~---------|
E--------00--000055555557--7777-------------|

[ Tab from: http://www.guitartabs.cc/tabs/h/hawthorne_heights/pens_and_needles_btab.html ]
G-----------------------------------|
D-----------------------------------|
A--4~-------------------------------| x2
E------0~---5555--7777--------------|


G-------------------------------|
D-------------------------------|
A--4444-------------------------| x2
E--------0005555--777-----------|


G---------------------------------|
D---------------------------------|
A--4~------4~---------------------|
E-------7-------7---5~---5---7~---|


G--------------------------------------------------------------------|
D--------------------------------------------------------------------|
A--4----------------4------------------------------------------------|
E-----0-000-000--7-----0-000-000--7-5-0-000-000--5-7--7777777--------|


G--------------------------------------------------|
D--------------------------------------------------|
A----------4~--------------------------------------|
E--7~------------0---5~------5~-----5555-7777------|


G-----------------------------------|
D-----------------------------------|
A--4~-------------------------------| x2
E------0~---5555--7777--------------|


G-------------------------------|
D-------------------------------|
A--4444-------------------------| x4
E--------0005555--777-----------|