Hawthorne Heights - Ohio Is For Lovers Chords & Tabs

 

Ohio Is For Lovers Chords & Tabs

Hawthorne Heights Chords & Tabs

Version: 7 Type: Tab 0 ratings
1 star 2 stars 3 stars 4 stars 5 stars
comments

Ohio Is For Lovers Tab

   
Band: Hawthorne Heights
Song: Ohio Is for Lovers
Tuning: Standard Tuning (EADGBE)
Tabber: Brian Baugus (mudvayne1217)

This tab is 99.99999999% correct. The only part im not sure about is some really
small thing that guitar 3 does.



INTRO:

Guitar 1:
e|--------------------------|
b|--------------------------|
g|--------------------------|
d|-----------4----------4---| x2
a|----2----2---------2---2--|
e|-4---4----------2---------|
                                         x4
e|--------------------------|
b|--------------------------|
g|--------------------------|
d|-----------4----------4---| x2
a|----2----2---------2---2--|
e|-0-----0---------2--------|

Guitar 2: (Comes in at 0:23)
e|-------------------------------------------------|
b|-------------------------------------------------|
g|-----8-----6-----8-----6--6p4--4-------6--6p4--4-|
d|-4/6---4/6---4/6---4/6------------4/6------------| x2
a|-------------------------------------------------|
e|-------------------------------------------------|

Guitar 3: (comes in at 0:11)
e|------------------------------------------------------------------|
b|------------------------------------------------------------------|
g|------------------------------------------------------------------|
d|-6666666666664444666666666666444422222222222244442222222222224444-| x3
a|-6666666666664444666666666666444422222222222244442222222222224444-|
e|-4444444444442222444444444444222200000000000022220000000000002222-|
   ................................................................




PRE CHORUS 1: (0:45)

Guitar 1:
e|-------------------------------------------------------------------------------|
b|-------------------------------------------------------------------------------|
g|-----------666688889999--------------------------666688889999------------------|
d|-2-4-66----xxxxxxxxxxxx---22222222222222--44-66--xxxxxxxxxxxx---22222222222222-|
a|-2-4-66----444466667777---22222222222222--44-66--444466667777---22222222222222-|
e|-0-2-44-------------------00000000000000--22-44-----------------00000000000000-|
   .
Guitar 2:
e|-----------------------------------------------------------------------------------------|
b|-----------------------------------------------------------------------------------------|
g|------------------------------------------------131313131515151516161616-----------------|
d|-2-4-66-------------------22222222222222--44-66--x-x-x-x-x-x-x-x-x-x-x-x--22222222222222-|
a|-2-4-66-------------------22222222222222--44-66-111111111313131314141414--22222222222222-|
e|-0-2-44-------------------00000000000000--22-44---------------------------00000000000000-|
   .
Guitar 3: (The ending of this was difficult to make out....it sounds good when you play it though.)
e|--------------------------------------------------------------------------9-7-5-7~---7\0-|
b|-----------------------------------------------------------------------------------------|
g|-----------------------------------------------------------------------------------------|
d|-2-4-66-------------------22222222222222--44-66------------------------------------------|
a|-2-4-66-------------------22222222222222--44-66------------------------------------------|
e|-0-2-44-------------------00000000000000--22-44------------------------------------------|
   .





CHORUS 1: (0:56)

Guitar 1:
e|--------------------------------------------------------------------|
b|--------------------------------------------------------------------|
g|------------------------------------------666688889999--------------|
d|-9/2--66666666-6-4-22-222222222222-2-4-66-xxxxxxxxxxxx-222222222222-|
a|-x----66666666-6-4-22-222222222222-2-4-66-444466667777-222222222222-|
e|-7/0--44444444-4-2-00-000000000000-0-2-44--------------000000000000-|
                        ............ .
Guitar 2:
e|--------------------------------------------------------------------------------|
b|--------------------------------------------------------------------------------|
g|---------------------------------------66-131313131515151516161616--------------|
d|------66666666-6-4-22-222222222222-2-4-66--x-x-x-x-x-x-x-x-x-x-x-x-222222222222-|
a|------66666666-6-4-22-222222222222-2-4-66-111111111313131314141414-222222222222-|
e|------44444444-4-2-00-000000000000-0-2-44--------------------------000000000000-|
                        ............ .
Guitar 3: (at the end of this..the 9-7-5-7~---7\0 part is the part im not sure about)
e|------------------------------------------------------9-7-5-7~---7\0-|
b|---------------------------------------------------------------------|
g|---------------------------------------------------------------------|
d|------66666666-6-4-22-222222222222-2-4--66666666-6-4-----------------|
a|------66666666-6-4-22-222222222222-2-4--66666666-6-4-----------------|
e|------44444444-4-2-00-000000000000-0-2--44444444-4-2-----------------|
                        ............ .
Guitars 1, 2, 3:
e|-------------------------------------------------------------|
b|-------------------------------------------------------------|
g|-------------------------------------------------------------|
d|-2-4--2-xx-4-xx--66-66-22-4-66-66-22-4-22-22-22-4-22-22-22-4-|
a|-2-4--2-xx-4-xx--66-66-22-4-66-66-22-4-22-22-22-4-22-22-22-4-|
e|-0-2--0-xx-2-xx--44-44-00-2-44-44-00-2-00-00-00-2-00-00-00-2-|
                         ..         ..         ..         ..





VERSE 2: (1:22)

Guitar 1:
e|------------------------------------------------------------------|
b|------------------------------------------------------------------|
g|------------------------------------------------------------------|
d|-6666666666664444666666666666444422222222222244442222222222224444-| x2
a|-6666666666664444666666666666444422222222222244442222222222224444-|
e|-4444444444442222444444444444222200000000000022220000000000002222-|
   ................................................................

Guitar 2: (Comes in at 1:33)
e|------------------------------------------|
b|------------------------------------------|
g|-6/888--66666/888--66666\\444--66666\\444-|
d|-x/xxx--xxxxx/xxx--xxxxx\\xxx--xxxxx\\xxx-|
a|-4/666--44444/666--44444\\222--44444\\222-|
e|------------------------------------------|

Guitar 3:
e|----------------------------------------------------------------------------------------------
b|----------------------------------------------------------------------------------------------
g|-131313131313131315151515151515151616161616161613131313131313131515151515151515161616161616161
d|--x-x-x-x-x-x-x-x-x-x-x-x-x-x-x-x-x-x-x-x-x-x-x-x-x-x-x-x-x-x-x-x-x-x-x-x-x-x-x-x-x-x-x-x-x-x-
a|-111111111111111113131313131313131414141414141411111111111111111313131313131313141414141414141
e|----------------------------------------------------------------------------------------------
   .............................................................................................

----------------------------------|
----------------------------------|
611111111111111111515151513131313-|
x-x-x-x-x-x-x-x-x-x-x-x-x-x-x-x-x-|
4-9-9-9-9-9-9-9-91313131311111111-|
----------------------------------|
.................................  





PRE CHORUS 2: (1:45)
[ Tab from: http://www.guitartabs.cc/tabs/h/hawthorne_heights/ohio_is_for_lovers_tab_ver_7.html ]
Guitar 1:
e|-------------------------------------------------------------------------------|
b|-------------------------------------------------------------------------------|
g|-----------666688889999--------------------------666688889999------------------|
d|-2-4-66----xxxxxxxxxxxx---22222222222222--44-66--xxxxxxxxxxxx---22222222222222-|
a|-2-4-66----444466667777---22222222222222--44-66--444466667777---22222222222222-|
e|-0-2-44-------------------00000000000000--22-44-----------------00000000000000-|
   .
Guitar 2:
e|-----------------------------------------------------------------------------------------|
b|-----------------------------------------------------------------------------------------|
g|------------------------------------------------131313131515151516161616-----------------|
d|-2-4-66-------------------22222222222222--44-66--x-x-x-x-x-x-x-x-x-x-x-x--22222222222222-|
a|-2-4-66-------------------22222222222222--44-66-111111111313131314141414--22222222222222-|
e|-0-2-44-------------------00000000000000--22-44---------------------------00000000000000-|
   .
Guitar 3:
e|--------------------------------------------------------------------------9-7-5-7~---7\0-|
b|-----------------------------------------------------------------------------------------|
g|-----------------------------------------------------------------------------------------|
d|-2-4-66-------------------22222222222222--44-66------------------------------------------|
a|-2-4-66-------------------22222222222222--44-66------------------------------------------|
e|-0-2-44-------------------00000000000000--22-44------------------------------------------|
   .





CHORUS 2: (1:55)

Guitar 1:
e|--------------------------------------------------------------------|
b|--------------------------------------------------------------------|
g|------------------------------------------666688889999--------------|
d|-9/2--66666666-6-4-22-222222222222-2-4-66-xxxxxxxxxxxx-222222222222-|
a|-x----66666666-6-4-22-222222222222-2-4-66-444466667777-222222222222-|
e|-7/0--44444444-4-2-00-000000000000-0-2-44--------------000000000000-|
                        ............ .
Guitar 2:
e|--------------------------------------------------------------------------------|
b|--------------------------------------------------------------------------------|
g|---------------------------------------66-131313131515151516161616--------------|
d|------66666666-6-4-22-222222222222-2-4-66--x-x-x-x-x-x-x-x-x-x-x-x-222222222222-|
a|------66666666-6-4-22-222222222222-2-4-66-111111111313131314141414-222222222222-|
e|------44444444-4-2-00-000000000000-0-2-44--------------------------000000000000-|
                        ............ .
Guitar 3:
e|------------------------------------------------------9-7-5-7~---7\0-|
b|---------------------------------------------------------------------|
g|---------------------------------------------------------------------|
d|------66666666-6-4-22-222222222222-2-4--66666666-6-4-----------------|
a|------66666666-6-4-22-222222222222-2-4--66666666-6-4-----------------|
e|------44444444-4-2-00-000000000000-0-2--44444444-4-2-----------------|
                        ............ .
Guitars 1, 2, 3:
e|-------------------------------------------------------------|
b|-------------------------------------------------------------|
g|-------------------------------------------------------------|
d|-2-4--2-xx-4-xx--66-66-22-4-66-66-22-4-22-22-22-4-22-22-22-4-|
a|-2-4--2-xx-4-xx--66-66-22-4-66-66-22-4-22-22-22-4-22-22-22-4-|
e|-0-2--0-xx-2-xx--44-44-00-2-44-44-00-2-00-00-00-2-00-00-00-2-|
                         ..         ..         ..         ..
Guitars 1, 2:
e|---------------------------------------------|
b|---------------------------------------------|
g|---------------------------------------------|
d|-66-66-22-4-66-66-22-4-22-22-22-4-22-22-22-4-|
a|-66-66-22-4-66-66-22-4-22-22-22-4-22-22-22-4-|
e|-44-44-00-2-44-44-00-2-00-00-00-2-00-00-00-2-|
         ..         ..         ..         ..

Guitar 3:
e|-7p6-7p6---7p6---7p6---7p6--9---7p6-7p6---7p6---7p6---7p6--9---7p6-7p6-|
b|---------------7--------------7---------------7--------------7---------|
g|-----------------------------------------------------------------------|
d|-----------------------------------------------------------------------|
a|-----------------------------------------------------------------------|
e|-----------------------------------------------------------------------|





BRIDGE: (2:33)

Guitar 1:
e|------------------------------------------------|
b|------------------------------------------------|
g|--------4-----------4---------------4---------4-|
d|--------4-----------4---------------4---------4-| x2
a|------------------------------------------------|
e|-2---4-----2----4----------2----0-------2--0----|





PRE CHORUS 3: (2:54)

Guitar 1:
e|-------------------------------------------------------------------------------|
b|-------------------------------------------------------------------------------|
g|-----------666688889999--------------------------666688889999------------------|
d|-2-4-66----xxxxxxxxxxxx---22222222222222--44-66--xxxxxxxxxxxx---22222222222222-|
a|-2-4-66----444466667777---22222222222222--44-66--444466667777---22222222222222-|
e|-0-2-44-------------------00000000000000--22-44-----------------00000000000000-|
   .
Guitar 2:
e|-----------------------------------------------------------------------------------------|
b|-----------------------------------------------------------------------------------------|
g|------------------------------------------------131313131515151516161616-----------------|
d|-2-4-66-------------------22222222222222--44-66--x-x-x-x-x-x-x-x-x-x-x-x--22222222222222-|
a|-2-4-66-------------------22222222222222--44-66-111111111313131314141414--22222222222222-|
e|-0-2-44-------------------00000000000000--22-44---------------------------00000000000000-|
   .
Guitar 3:
e|--------------------------------------------------------------------------9-7-5-7~---7\0-|
b|-----------------------------------------------------------------------------------------|
g|-----------------------------------------------------------------------------------------|
d|-2-4-66-------------------22222222222222--44-66------------------------------------------|
a|-2-4-66-------------------22222222222222--44-66------------------------------------------|
e|-0-2-44-------------------00000000000000--22-44------------------------------------------|
   .




CHORUS 3: (3:06)

Guitar 1:
e|--------------------------------------------------------------------|
b|--------------------------------------------------------------------|
g|------------------------------------------666688889999--------------|
d|-9/2--66666666-6-4-22-222222222222-2-4-66-xxxxxxxxxxxx-222222222222-|
a|-x----66666666-6-4-22-222222222222-2-4-66-444466667777-222222222222-|
e|-7/0--44444444-4-2-00-000000000000-0-2-44--------------000000000000-|
                        ............ .
Guitar 2:
e|--------------------------------------------------------------------------------|
b|--------------------------------------------------------------------------------|
g|---------------------------------------66-131313131515151516161616--------------|
d|------66666666-6-4-22-222222222222-2-4-66--x-x-x-x-x-x-x-x-x-x-x-x-222222222222-|
a|------66666666-6-4-22-222222222222-2-4-66-111111111313131314141414-222222222222-|
e|------44444444-4-2-00-000000000000-0-2-44--------------------------000000000000-|
                        ............ .
Guitar 3:
e|------------------------------------------------------9-7-5-7~---7\0-|
b|---------------------------------------------------------------------|
g|---------------------------------------------------------------------|
d|------66666666-6-4-22-222222222222-2-4--66666666-6-4-----------------|
a|------66666666-6-4-22-222222222222-2-4--66666666-6-4-----------------|
e|------44444444-4-2-00-000000000000-0-2--44444444-4-2-----------------|
                        ............ .
Guitars 1, 2, 3:
e|-------------------------------------------------------------|
b|-------------------------------------------------------------|
g|-------------------------------------------------------------|
d|-2-4--2-xx-4-xx--66-66-22-4-66-66-22-4-22-22-22-4-22-22-22-4-|
a|-2-4--2-xx-4-xx--66-66-22-4-66-66-22-4-22-22-22-4-22-22-22-4-|
e|-0-2--0-xx-2-xx--44-44-00-2-44-44-00-2-00-00-00-2-00-00-00-2-|
                         ..         ..         ..         ..
Guitars 1, 2:
e|---------------------------------------------|
b|---------------------------------------------|
g|---------------------------------------------|
d|-66-66-22-4-66-66-22-4-22-22-22-4-22-22-22-4-| keep playing till fade.
a|-66-66-22-4-66-66-22-4-22-22-22-4-22-22-22-4-|
e|-44-44-00-2-44-44-00-2-00-00-00-2-00-00-00-2-|
         ..         ..         ..         ..
Guitar 3:
e|-7p6-7p6---7p6---7p6---7p6--9---7p6-7p6---7p6---7p6---7p6--9---7p6-7p6-|
b|---------------7--------------7---------------7--------------7---------|
g|-----------------------------------------------------------------------|
d|-----------------------------------------------------------------------| keep playing till fade.
a|-----------------------------------------------------------------------|
e|-----------------------------------------------------------------------|


Thats it guys. Have fun.


Any questions im me at TenThousandFsts on aim or email me at UnsatsifiedPimp@hotmail.com
Comments