Hawthorne Heights - Ohio Is For Lovers Chords & Tabs

 

Ohio Is For Lovers Chords & Tabs

Hawthorne Heights Chords & Tabs

Version: 3 Type: Tab 1 rating
1 star 2 stars 3 stars 4 stars 5 stars
comments

Ohio Is For Lovers Tab

   
/= slide
. = palm mute
p=pull
Guitar 1=Micah Carli
Guitar 2=Casey Calvert
Guitar 3=JT Woodruff

Intro Guitar 2

E-------------
B-------------
G-------------
D-----4----4--   x2
A--2-2----2-2-
E-4-4–---2----
                           x4
E-------------
B-------------
G-----4-------
D-----4---4---   x2
A--2-2----2-2-
E-0-0----2----

Guitar 1 (comes in 3rd time) 

E-----------------------------------------
B-----------------------------------------
G-----------------------------------------
D-6p4--4/6----6p4--4/6----4p2--2/4----4p2-     x2
A-----------------------------------------
E-----------------------------------------

Guitar 3 (comes in 2nd time)

E--------------------------------------------------------------
B--------------------------------------------------------------
G--------------------------------------------------------------
D-666666666666444466666666664444222222222244442222222222244444-   x3
A-666666666666444466666666664444222222222244442222222222244444-
E-444444444444222244444444442222000000000022220000000000022222-

Pre-chorus Guitars 1 and 3

E---------------------------------------------------------------
B---------------------------------------------------------------
G---------------------------------888810101212------------------
D-4-66--------222222222222-44-4-6-xxxxxxxxxxxx-222222222222-----
A-4-66--------222222222222-44-4-6-666688881010-222222222222-----
E-2-44--------000000000000-22-2-4--------------000000000000-12\-

Pre-chorus Guitar 2

E-------------------------------------------------------------------
B-------------------------------------------------------------------
G------666688889999-10--8---10--9--------888810101212-12--10-12-----
D-4-66-xxxxxxxxxxxx-x---x---x---x---4-66-xxxxxxxxxxxx-x---x--x------
A-4-66-444466667777-8---6---8---6---4-66-666688881010-10--8--10-----
E-2-44------------------------------2-44------------------------12\-

Chorus Guitars 2 and 3

E------------------------------------------------------------------
B------------------------------------------------------------------
G------------------------------------------------------------------
D-666666666666-4-2-222222222222-4-66-666666666666-4-666666888888-4-
A-666666666666-4-2-222222222222-4-66-666666666666-4-666666888888-4-
E-444444444444-2-0-000000000000-2-44-444444444444-2-444444666666-2-
                   ............                                                           

Guitar 1

E----------------------------------------------------------------
B----------------------------------------------------------------
G--------------------------------------888810101212-12--10-12----
D-666666666666--4-2-222222222222--4-66-xxxxxxxxxxxx-x---x--x---4-
A-666666666666--4-2-222222222222--4-66-666688881010-10--8--10--4-
E-444444444444--2-0-000000000000--2-44-------------------------2-
                    ............
Chorus cont’d Guitars 1,2, and 3

E----------------------------------------------------
B----------------------------------------------------
G----------------------------------------------------
D-2-22-4-22—-66-66-244-66-66-244-22-22-244-22-00-244-
A-2-22-4-22--66-66-244-66-66-244-22-22-244-22-00-244-
E-0-00-2-00--44-44-022-44-44-022-00-00-022-00-00-022-
    ..   ..        .         .         .         .

Verse Guitars 1,2, and 3

E--------------------------------------------------------------
B--------------------------------------------------------------
G--------------------------------------------------------------
D-666666666644446666666666444422222222222244442222222222244444-  x2
A-666666666644446666666666444422222222222244442222222222244444-
E-444444444422224444444444222200000000000022220000000000022222-
  ........................................................

Verse Guitar 1 (second time only)

E--------------------------------------------------------
B--------------------------------------------------------
G-6666-88--6666-88--4444-66--4444-66---------------------
D-xxxx-xx--xxxx-xx--xxxx-xx--xxxx-xx---------------------
A-4444-66--4444-66--2222-44--2222-44---------------------
E--------------------------------------------------------

Pre-chorus Guitars 1 and 3

E---------------------------------------------------------------
B---------------------------------------------------------------
G---------------------------------888810101212------------------
D-4-66--------222222222222-44-4-6-xxxxxxxxxxxx-222222222222-----
A-4-66--------222222222222-44-4-6-666688881010-222222222222-----
E-2-44--------000000000000-22-2-4--------------000000000000-12\-

Pre-chorus Guitar 2
[ Tab from: http://www.guitartabs.cc/tabs/h/hawthorne_heights/ohio_is_for_lovers_tab_ver_3.html ]
E-------------------------------------------------------------------
B-------------------------------------------------------------------
G------666688889999-10--8---10--9--------888810101212-12--10-12-----
D-4-66-xxxxxxxxxxxx-x---x---x---x---4-66-xxxxxxxxxxxx-x---x--x------
A-4-66-444466667777-8---6---8---6---4-66-666688881010-10--8--10-----
E-2-44------------------------------2-44------------------------12\-

Chorus Guitars 2 and 3

E------------------------------------------------------------------
B------------------------------------------------------------------
G------------------------------------------------------------------
D-666666666666-4-2-222222222222-4-66-666666666666-4-666666888888-4-
A-666666666666-4-2-222222222222-4-66-666666666666-4-666666888888-4-
E-444444444444-2-0-000000000000-2-44-444444444444-2-444444666666-2-
                   ............                                                           

Chorus Guitar 1

E----------------------------------------------------------------
B----------------------------------------------------------------
G--------------------------------------888810101212-12--10-12----
D-666666666666--4-2-222222222222--4-66-xxxxxxxxxxxx-x---x--x---4-
A-666666666666--4-2-222222222222--4-66-666688881010-10--8--10--4-
E-444444444444--2-0-000000000000--2-44-------------------------2-
                    ............
Chorus cont’d Guitars 1,2, and 3 (don’t play first 6 chords 2nd time)

E----------------------------------------------------
B----------------------------------------------------
G----------------------------------------------------
D-2-22-4-22—-66-66-244-66-66-244-22-22-244-22-00-244-   x2
A-2-22-4-22--66-66-244-66-66-244-22-22-244-22-00-244-
E-0-00-2-00--44-44-022-44-44-022-00-00-022-00-00-022-
    ..   ..        .         .         .         .

Chorus cont’d Guitar 1 2nd time only (12, 10, and 11)

E-12-1010111010-
B---------------
G---------------
D---------------  x12
A---------------
E---------------

Bridge Guitars 1 and 2

E-----------------------
B-----------------------
G---4-----4-----4-----4-
D---4-----4-----4-----4-   x2
A-----------------------
E-4---2-4---2-0---2-0---

Pre-chorus Guitars 1 and 3

E---------------------------------------------------------------
B---------------------------------------------------------------
G---------------------------------888810101212------------------
D-4-66--------222222222222-44-4-6-xxxxxxxxxxxx-222222222222-----
A-4-66--------222222222222-44-4-6-666688881010-222222222222-----
E-2-44--------000000000000-22-2-4--------------000000000000-12\-

Pre-chorus Guitar 2

E-------------------------------------------------------------------
B-------------------------------------------------------------------
G------666688889999-10--8---10--9--------888810101212-12--10-12-----
D-4-66-xxxxxxxxxxxx-x---x---x---x---4-66-xxxxxxxxxxxx-x---x--x------
A-4-66-444466667777-8---6---8---6---4-66-666688881010-10--8--10-----
E-2-44------------------------------2-44------------------------12\-

Chorus Guitars 2 and 3

E------------------------------------------------------------------
B------------------------------------------------------------------
G------------------------------------------------------------------
D-666666666666-4-2-222222222222-4-66-666666666666-4-222222222222-4-
A-666666666666-4-2-222222222222-4-66-666666666666-4-222222222222-4-
E-444444444444-2-0-000000000000-2-44-444444444444-2-000000000000-2-
                   ............                                                           

Chorus Guitar 1

E----------------------------------------------------------------
B----------------------------------------------------------------
G--------------------------------------888810101212-12--10-12----
D-666666666666--4-2-222222222222--4-66-xxxxxxxxxxxx-x---x--x---4-
A-666666666666--4-2-222222222222--4-66-666688881010-10--8--10--4-
E-444444444444--2-0-000000000000--2-44-------------------------2-
                    ............
Chorus cont’d Guitars 1, 2, and 3 (don’t play first 6 chords after the first time)

E----------------------------------------------------
B----------------------------------------------------
G----------------------------------------------------
D-2-22-4-22—-66-66-244-66-66-244-22-22-244-22-00-244-   repeated as 
A-2-22-4-22--66-66-244-66-66-244-22-22-244-22-00-244-   song fades out
E-0-00-2-00--44-44-022-44-44-022-00-00-022-00-00-022-
    ..   ..        .         .         .         .

Chorus cont’d Guitar 1 2nd time and after only

E-12-1010111010-
B---------------
G---------------
D---------------  repeat till end
A---------------
E---------------

Comments