Hawthorne Heights - Ohio Is For Lovers Chords & Tabs

 

Ohio Is For Lovers Chords & Tabs

Hawthorne Heights Chords & Tabs

Version: 1 Type: Bass Tab 0 ratings
1 star 2 stars 3 stars 4 stars 5 stars
comments

Ohio Is For Lovers Bass Tab

G ---------------------------------------------------|
D ---------------------------------------------------|
A ---------------------------------------------------| x3
E -7/----44424--22--44424--22--00000--22--00000--22--|


G -----------------------------|
D -----------------------------|
A -----------------------------|
E -44--00000000--44--00000000--|


G -------------------------------------|
D -------------------------------------|
A -------------------------------------|
E -44444444-4444--2--00000000-0000--2--|


G ----------------------------------------|
D ----------------------------------------|
A ----------------------------------------|
E -00-22--44-44-22--00-00--22--00-00--22--|

Verse
G ----------------------------------|
D ----------------------------------|
A ----------------------------------| x2
E -44444444-4444-2-00000000-0000-2--|

[ Tab from: http://www.guitartabs.cc/tabs/h/hawthorne_heights/ohio_is_for_lovers_btab.html ]
G ------|--------------------------------------------|
D ------|--------------------------------------------|
A ------|--------------------------------------------| x2
E -00-22|----44-44-22--44-44-22--00-00-22--00-00-22--|
^^^^^^^
do that
the first
time only


G ------------------------------|
D ------------------------------|
A ------------------------------| x2
E -4~~--2--4~~--2--0~~--2--0~~--|


G -----------------------------|
D -----------------------------|
A -----------------------------|
E -44--00000000--44--00000000--|


G -------------------------------------|
D -------------------------------------|
A -------------------------------------| x2
E -44444444-4444--2--00000000-0000--2--|


G ------|--------------------------------------------|
D ------|--------------------------------------------|
A ------|--------------------------------------------| x3 FADE OUT
E -00-22|----44-44-22--44-44-22--00-00-22--00-00-22--|
^^^^^^^
do that
the first
time only
Comments