Hawthorne Heights - Niki Fm Chords & Tabs

 

Niki Fm Chords & Tabs

Hawthorne Heights Chords & Tabs

Version: 8 Type: Tab

Niki Fm Tab

Hawthorne Heights: Niki FM
Standard Tuning
This is my first tab so take it easy on me>Deadcab-4Travis

Intro:
|-------------|     |-------------------|
|-------------|     |-------------------|
|--1-2-4-1-2--|x2   |----6-------2------|
|--2-4-6-2-4--|     |----6---2---2------|
|-------------|     |----4---2---0------|
|-------------|     |--------0----------|

Verse 1 (x3) :
|------------------------------------------|
|------------0-4-5-4------------0-4-5-4----|
|--6-6---6-6----------6-6---6-6------------|
|--6-6---6-6----------6-6---6-6------------|
|--4-4---4-4----------4-4---4-4------------|
|------------------------------------------|
 

|---------------------------------------------|
|------------0-4-5-4------------0-4-5-4-------|
|--2-2---2-2----------2-2---2-2-------------4-|
|--2-2---2-2----------2-2---2-2-------------4-|don't play
|--0-0---0-0----------0-0---0-0-------------2-|	chord the
|---------------------------------------------|	3rd time thru
 

Prechorus (x2) 
|-----9-0-7-0-----|
|--/5-------------|
|-----------------|
|-----------------|
|-----------------|
|-----------------|

Chorus (x1):
|-------------------|--------------------------------|
|-------------------|--------------------------------|
|----6-------2------|--6666--6666--64--2--4--2--4----|
|----6---2---2------|--6666--6666--64--2--4--2--4----|
|----4---2---0------|--4444--4444--42--0--2--0--2----|
|--------0----------|--------------------------------|

Verse 2 (x2):
|------------------------------------------|
|------------0-4-5-4------------0-4-5-4----|
|--6-6---6-6----------6-6---6-6------------|
|--6-6---6-6----------6-6---6-6------------|
|--4-4---4-4----------4-4---4-4------------|
|------------------------------------------|
  

|---------------------------------------------|
|------------0-4-5-4------------0-4-5-4-------|
|--2-2---2-2----------2-2---2-2-------------4-|
|--2-2---2-2----------2-2---2-2-------------4-|
|--0-0---0-0----------0-0---0-0-------------2-|
|---------------------------------------------|



|------------------------------------------|
|------------0-4-5-4------------0-4-5-4----|
|--6-6---6-6----------6-6---6-6------------|
|--6-6---6-6----------6-6---6-6------------|
|--4-4---4-4----------4-4---4-4------------|
|------------------------------------------|

[ Tab from: http://www.guitartabs.cc/tabs/h/hawthorne_heights/niki_fm_tab_ver_8.html ]
|---------------------------------------------|
|---------------------------------------------|
|--2-2---2-2----------2-2---2-2-------------4-|
|--2-2---2-2----------2-2---2-2-------------4-|
|--0-0---0-0----------0-0---0-0-------------2-|
|---------------------------------------------|
 

|------------0-4-5-4------------0-4-5-4----|
|------------0-4-5-4------------0-4-5-4----|
|--6-6---6-6----------6-6---6-6------------|
|--6-6---6-6----------6-6---6-6------------|
|--4-4---4-4----------4-4---4-4------------|
|------------------------------------------|



|------------0-4-5-4------------0-4-5-4----|
|------------0-4-5-4------------0-4-5-4----|
|--2-2---2-2----------2-2---2-2------------|
|--2-2---2-2----------2-2---2-2------------|
|--0-0---0-0----------0-0---0-0------------|
|------------------------------------------|


Prechorus (x1):
|-----------9-0-7-0----------------------|
|--9~\---/5----------------4-------------|
|-----------------------------------2----|
|------------------------6--------2------|
|----------------------4--------0--------|
|----------------------------------------|

Chorus:
|--------------------------------|-------------------|
|--------------------------------|-------------------|
|--6666--6666--64--2--4--2--4----|----6-------2------|
|--6666--6666--64--2--4--2--4----|----6---2---2------|
|--4444--4444--42--0--2--0--2----|----4---2---0------|
|--------------------------------|--------0----------|

|--------------------------------|
|--------------------------------|
|--6666--6666--64--2--4--2--4----|
|--6666--6666--64--2--4--2--4----|
|--4444--4444--42--0--2--0--2----|
|--------------------------------|

Bridge 1:
|-----------------------------|
|---22222244445555------------|
|-----------------22224444----|
|-----------------------------|
|-----------------------------|
|-----------------------------|

|------------------|
|------------------|
|--6--8--9---------| x2 this line only
|--6--8--9--7--9---|
|--4--6--7--7--9---|
|-----------5--7---|

Bridge 2 (x4):
|--------------------------------------------|
|--------------------------------------------|
|--6-6-------6-6---4-4---2-2-------4-4-------|
|--6-6-2-2---6-6-2-4-4-2-2-2-2-2---4-4-2-2---|
|--4-4-2-2---4-4-2-2-2-2-0-0-2-2---2-2-2-2---|
|------0-0-------0-----0-----0-0-------0-0---|
    

Outro (x3):
|--12--12--11--12--7--7-------------------|---0---|
|-----------------------------------------|---0---|
|-----9---9---9---9--6--6----8--9---8-----|---2---|
|----9---9---9---9--9--9--/9---9--9-------|---2---|
|-----------------------------------------|---0---|
|-----------------------------------------|---0---|
			        
                                        ending chord (last time only)