Hawthorne Heights - Niki Fm Chords & Tabs

 

Niki Fm Chords & Tabs

Hawthorne Heights Chords & Tabs

Version: 7 Type: Tab 0 ratings
1 star 2 stars 3 stars 4 stars 5 stars
comments

Niki Fm Tab

Some of the small parts i didn't figure out but the rest of the song should be right.

   (Intro)
e|---------------------|----------------------------------------------|
B|---------------------|----------------------------------------------|
G|-6-8-9-----6-8-9-----|--6---2---------------------------------------|
D|-------7-9-------7-9-|--6-2-2---------------------------------------|
A|---------------------|--4-2-0---------------------------------------|
E|---------------------|----0-----------------------------------------|

   (Verse pt.1)
e|------------0--------------0--------------0-----------------0-------|
B|-----------4-4------------4-4------------4-4---------------4-4------|
G|-6-6--6-6-4---4-6-6--6-6-4---4----------4---4-------------4-------4-|
D|-6-6--6-6-------6-6--6-6-------7-7--7-7---------7-7--7-7----------4-|(X2)
A|-4-4--4-4-------4-4--4-4-------7-7--7-7---------7-7--7-7----------2-|
E|-------------------------------5-5--5-5---------5-5--5-5------------|

   (Verse pt.2)
e|------------0--------------0--------------0--------------0----------|
B|-----------4-4------------4-4------------4-4------------4-4---------|
G|-6-6--6-6-4---4-6-6--6-6-4---4----------4---4----------4----------4-|
D|-6-6--6-6-------6-6--6-6-------7-7--7-7-------7-7--7-7------------4-|
A|-4-4--4-4-------4-4--4-4-------7-7--7-7-------7-7--7-7------------2-|
E|-------------------------------5-5--5-5-------5-5--5-5--------------|


e|-------|------------------------------------------------------------|
B|-------|------------------------------------------------------------|
G|-6---2-|-6-6-6-6--6-6-6-6--6-4-2--4--2--4---------------------------|
D|-6-2-2-|-6-6-6-6--6-6-6-6--6-4-2--4--2--4---------------------------|
A|-4-2-0-|-4-4-4-4--4-4-4-4--4-2-0--2--0--2---------------------------|
E|---0---|------------------------------------------------------------|


   (Verse pt.1)
e|------------0--------------0--------------0-----------------0-------|
B|-----------4-4------------4-4------------4-4---------------4-4------|
G|-6-6--6-6-4---4-6-6--6-6-4---4----------4---4-------------4-------4-|
D|-6-6--6-6-------6-6--6-6-------7-7--7-7---------7-7--7-7----------4-|(X2)
A|-4-4--4-4-------4-4--4-4-------7-7--7-7---------7-7--7-7----------2-|
E|-------------------------------5-5--5-5---------5-5--5-5------------|

[ Tab from: http://www.guitartabs.cc/tabs/h/hawthorne_heights/niki_fm_tab_ver_7.html ]
e|------------0--------------0----------------------------------------|
B|-----------4-4------------4-4---------------------------------------|
G|-6-6--6-6-4---4-6-6--6-6-4---4----------------------4---------------|
D|-6-6--6-6-------6-6--6-6-------7-7-7-7--7-7-7-7-----4---------------|
A|-4-4--4-4-------4-4--4-4-------7-7-7-7--7-7-7-7-----2---------------|
E|-------------------------------5-5-5-5--5-5-5-5---------------------|



  (Verse pt.2)
e|------------0--------------0--------------0--------------0----------|
B|-----------4-4------------4-4------------4-4------------4-4---------|
G|-6-6--6-6-4---4-6-6--6-6-4---4----------4---4----------4----------4-|
D|-6-6--6-6-------6-6--6-6-------7-7--7-7-------7-7--7-7------------4-|
A|-4-4--4-4-------4-4--4-4-------7-7--7-7-------7-7--7-7------------2-|
E|-------------------------------5-5--5-5-------5-5--5-5--------------|


e|----------------------------------|-------|-------------------------|
B|----------------------------------|-------|-------------------------|
G|-6-6-6-6--6-6-6-6--6-4-2--4--2--4-|-6---2-|-------------------------|
D|-6-6-6-6--6-6-6-6--6-4-2--4--2--4-|-6-2-2-|-------------------------|
A|-4-4-4-4--4-4-4-4--4-2-0--2--0--2-|-4-2-0-|-------------------------|
E|----------------------------------|---0---|-------------------------|


e|----------------------------------|---------------------------------|
B|----------------------------------|---------------------------------|
G|-6-6-6-6--6-6-6-6--6-4-2--4--2--4-|---------------------------------|
D|-6-6-6-6--6-6-6-6--6-4-2--4--2--4-|---------------------------------|
A|-4-4-4-4--4-4-4-4--4-2-0--2--0--2-|---------------------------------|
E|----------------------------------|---------------------------------|


e|--------------------------------------------------------------------|
B|--------------------------------------------------------------------|
G|--------------------------------------------------------------------|
D|--------------------------------------------------------------------|
A|-4444444-6666666-7777777------------------X2------------------------|
E|-------------------------5555555-7777777----------------------------|


e|----------------|---------------------------------------------------|
B|----------------|---------------------------------------------------|
G|----------------|-6-6-----6-6-4-4-2-2-----4-4-----------------------|
D|----------------|-6-6-2-2-6-6-4-4-2-2-2-2-4-4-2-2-------------------|
A|-4--6--7------X2|-4-4-2-2-4-4-2-2-0-0-2-2-2-2-2-2--X4---------------|
E|---------5--7---|-----0-0-------------0-0-----0-0-------------------|


   (Outro)
e|-12---12---11---12---7---7------------------------------------------|
B|---9----9----9----9---5---5-----------------------------------------|
G|----9----9----9----9---6---6----------------------------------------|
D|--------------------------------------------------------------------|
A|--------------------------------------------------------------------|
E|--------------------------------------------------------------------|
Comments