Hawthorne Heights - Niki Fm Chords & Tabs

 

Niki Fm Chords & Tabs

Hawthorne Heights Chords & Tabs

Version: 5 Type: Tab 0 ratings
1 star 2 stars 3 stars 4 stars 5 stars
comments

Niki Fm Tab

Artist : Hawthorne Heights
Song   : Niki FM    
Tuning : EADGBE                     NOTE : This tab is only for Guitar 1.
Tab By : HawthorneHeightsFan 

Intro                             
                           
|---------------------|
|---------------------|
|---------------------|   x2
|--6---7---9---6---7--|
|--4---6---7---0---x--|
|------------------7--|

Fill

|------------|
|------------|
|--6-----2~--|   x1
|--4--2--2~--|
|--4--2--0~--|
|-----0------|

Verse 

|----------0--------------0--------------0--------------0-------|
|---------4-4------------4-4------------4-4------------4-4------|
|66--66--4---4--66--66--4---4--22--22--4---4--22--22--4---4--4~-|  x3
|44--44---------44--44---------22--22---------22--22---------4~-|
|44--44---------44--44---------00--00---------00--00---------2~-|
|---------------------------------------------------------------|

(theres a small solo between these two but i haven't figured it out yet)

Fill

|------------|
|------------|
|--6-----2~--|  x1
|--4--2--2~--|
|--4--2--0~--|
|-----0------|

Chorus

|------------------------------------|
|------------------------------------|
|--6666--6666--x4--2~--4~--2~--4~----|  x1
|--4444--4444--x4--2~--4~--2~--4~----|
|--4444--4444--x2--0~--2~--0~--2~----|
|------------------------------------|

Verse

|----------0--------------0--------------0--------------0-------|
|---------4-4------------4-4------------4-4------------4-4------|
|66--66--4---4--66--66--4---4--22--22--4---4--22--22--4---4--4~-|  x2
|44--44---------44--44---------22--22---------22--22---------4~-|
|44--44---------44--44---------00--00---------00--00---------2~-|
|---------------------------------------------------------------|
[ Tab from: http://www.guitartabs.cc/tabs/h/hawthorne_heights/niki_fm_tab_ver_5.html ]
|----------0--------------0-------------------------------------|
|---------4-4------------4-4------------------------------------|
|66--66--4---4--66--66--4---4--22--22---------22--22---------4~-|  x1
|44--44---------44--44---------22--22---------22--22---------2~-|
|44--44---------44--44---------00--00---------00--00---------2~-|
|---------------------------------------------------------------|

|----------0--------------0--------------0--------------0-------|
|---------4-4------------4-4------------4-4------------4-4------| 
|66--66--4---4--66--66--4---4--22--22--4---4--22--22--4---4--4~-|  x1
|44--44---------44--44---------22--22---------22--22---------2~-|
|44--44---------44--44---------00--00---------00--00---------2~-|
|---------------------------------------------------------------|

(once again there is a small solo. you can try to figure it out or just skip it.)  

Chorus

|---------------------------------|
|---------------------------------|
|--6666--6666--x4--2~--4~--2~--4~-|  x1
|--4444--4444--x4--2~--4~--2~--4~-|
|--4444--4444--x2--0~--2~--0~--2~-|
|---------------------------------|

Fill

|-----------|
|-----------|
|--6-----2~-|  x1
|--4--0--2~-|
|--4--2--0~-|
|-----2-----|

Chorus

|---------------------------------|
|---------------------------------|
|--6666--6666--x4--2~--4~--2~--4~-|  x1
|--6666--6666--x2--2~--2~--2~--2~-|
|--4444--4444--x2--0~--2~--0~--2~-|
|---------------------------------|

Bridge

|-------------------------|
|-------------------------| 
|--9~---11--13--9~---11---|  x2
|--x~----x---x--x~----x---|
|--7~----9--11--7~----9---|
|-------------------------|

Breakdown

|------------------------------|
|------------------------------|
|--66-----66x-44x-22-----66----|  x4
|--66-22--66x-44x-22-22--66-22-|
|--44-22--44x-22x-00-22--44-22-|
|-----00-------------00-----00-|

End Riff

|--------7-------------7-------------7-------------0-------|
|----0-----0-------0-----0-------0-----0-------4-----4-----|
|--9---9-----9---8---8-----8---6---6-----6---4---4-----4---|  x3
|----------------------------------------------------------|
|----------------------------------------------------------|
|----------------------------------------------------------|
Comments