Hawthorne Heights - Niki Fm Chords & Tabs

 

Niki Fm Chords & Tabs

Hawthorne Heights Chords & Tabs

Version: 4 Type: Tab 0 ratings
1 star 2 stars 3 stars 4 stars 5 stars
comments

Niki Fm Tab

   
Niki FM
Hawthorne Heights
http://www.purevolume.com/hawthorneheights

Intro
e|--------------------|
B|--------------------|
G|--------------------|
D|---5--7--9---5--7---|
A|---7--9--11--7--9---|
E|--------------------|

Verso
e|-------------|
B|-------------|
G|---6--2--4---|
D|---6--2--4---|
A|---4--0--2---|
E|-------------|

e|----------0--------------------0-----------|
B|---------4-4------------------4-4----------|
G|--66-66-4---4--(x2)---22-22--4---4--(x2)---|
D|--66-66---------------22-22----------------|
A|--44-44---------------00-00----------------|
E|-------------------------------------------|

Riff 1
e|------------------|
B|----------4-------|
G|--6--2--------2---|
D|--6--2---6---2----|
A|--4--0--4---0-----|
E|------------------|
[ Tab from: http://www.guitartabs.cc/tabs/h/hawthorne_heights/niki_fm_tab_ver_4.html ]
Coro
e|-----------|--------------------------------|
B|-----------|--------------------------------|
G|--6--2--4--|--6666--6666--64--22-44-22-44---|
D|--6--2--4--|--6666--6666--64--22-44-22-44---|
A|--4--0--2--|--4444--4444--42--00-22-00-22---|
E|-----------|--------------------------------|

Puente
e|------------------------------------|
B|------------------------------------|
G|--6666688888999992222244444--(x2)---|
D|------------------------------------|
A|------------------------------------|
E|------------------------------------|

"mini-solo"
e|-------------------------|
B|--10-12-14-10-12--(x2)---|
G|-------------------------|
D|-------------------------|
A|-------------------------|
E|-------------------------|

Riff2
e|-----------------------------|
B|-----------------------------|
G|--6662x--6664442222x--444x---|
D|--6662x--6664442222x--444x---|
A|--4440x--4442220000x--222x---|
E|-----------------------------|

Outro
e|--12--12--11--12--7------------|
B|-------------------------------|
G|----9---9---9---9--6---8-9-8---|
D|-----9---9---9---9--9-9-9------|
A|-------------------------------|
E|-------------------------------|



*** pipe_@walla.com ***
Comments