Hawthorne Heights - Niki Fm Chords & Tabs

 

Niki Fm Chords & Tabs

Hawthorne Heights Chords & Tabs

Version: 3 Type: Tab 0 ratings
1 star 2 stars 3 stars 4 stars 5 stars
comments

Niki Fm Tab

   
			Hawthorne Heights
-------------------------------------------------------------------------------
Tabbed by:Keith
Email:x_boxman2003@yahoo.com

Tuning:drop d       you have to figure out the strumming

e|------------------------------|---------------------------------------------|
B|------------------------------|---------------------------------------------|
G|6--8--9--------6--8--9--------|6--------------------------------------------|
D|6--8--9--7--9--6--8--9--7--9--|6--2--7--------------------------------------|
A|4--6--7--7--9--4--6--7--7--9--|4--2--7--------------------------------------|
E|---------7--9-----------7--9--|---2--7--------------------------------------|

e|----------------------------------------------------------------------------|
B|----------------------------------------------------------------------------|
G|66-66----9---66-66----9-------------9------------9--------------------------|
D|66-66---9-9--66-66---9-9---77-77---9-9--77-77---9-9---9--(x3)---------------|
A|44 44--7---7-44-44--7---7--77-77--7---7-77-77--7---7--9---------------------|
E|---------------------------77-77--------77-77---------9---------------------|

e|-------------|----------|-------------------------------------------------|
B|-------------|---------|--------------------------------------------------|
G|6----9-------|6--------|6-------------------------------------------------|
D|6----9--7-(x2|4--2--7--|6--9--7--9--7--9----------------------------------|
A|4----7--7----|4--2--7--|4--9--7--9--7--9----------------------------------|
E|--------7----|---2--7--|---9--7--9--7--9----------------------------------|
[ Tab from: http://www.guitartabs.cc/tabs/h/hawthorne_heights/niki_fm_tab_ver_3.html ]
e|----------------------------------------------------------------------------|
B|----------------------------------------------------------------------------|
G|66-66----9------------9------------9------------9---------------------------|
D|66-66---9-9--66-66---9-9--77-77---9-9--77-77---9-9--9-(x2)------------------|
A|44-44--7---7-44-44--7---7-77-77--7---7-77-77--7---7-9-----------------------|
E|--------------------------77-77--------77-77--------9-----------------------|

e|-----------------------------------------------------------------------------|
B|-----------------------------------------------------------------------------|
G|66-66---9----66-66---9-------------------------------------------------------|
D|66-66--9-9---66-66--9-9---77-77--77-77--9------------------------------------|
A|44-44-7---7--44-44-7---7--77-77--77-77--9------------------------------------|
E|--------------------------77-77--77-77--9------------------------------------|
e|------------------------------------------------|----------------------------|
B|------------------------------------------------|----------------------------|
G|66-66---9---66-66---9-----------9-----------9---|6-9-------------------------|
D|66-66--9-9--66-66--9-9--77-77--9-9--77-77--9-9--|6-9--7--(x2)----------------|
A|44-44-7---7-44-44-7---7-77-77-7---7-77-77-7---7-|4-7--7----------------------|
E|------------------------77-77-------77-77-------|-----7----------------------|
e|---------------------------------------------|-------------------------------|
B|---------------------------------------------|-------------------------------|
G|6-----------------6--------6-----------------|-------------------------------|
D|6--9--7--9--7--9--6--2--7--6--9--7--9--7--9--|--------------(x4)-------------|
A|4--9--7--9--7--9--4--2--7--4--9--7--9--7--9--|4--6--7------------------------|
E|---9--7--9--7--9-----2--7-----9--7--9--7--9--|---------7--9------------------|

e|----------------------------------------------------------------------------|
B|----------------------------------------------------------------------------|
G|6---6-------------6----6----------------------------------------------------|
D|6-2-6-9-7-2--9-2--6--2-6-9-7-2----------------------------------------------|
A|4-2-4-9-7-2--9-2--4--2-4-9-7-2---(x4)---------------------------------------|
E|--2---9-7-2--9-2-----2---9-7-2----------------------------------------------|

sorry, i dont no the ending part

| /  slide up
| \  slide down
| h  hammer-on
| p  pull-off
| ~  vibrato
| +  harmonic
| x  Mute note
Comments