Hawthorne Heights - Niki Fm Chords & Tabs

 

Niki Fm Chords & Tabs

Hawthorne Heights Chords & Tabs

Version: 10 Type: Tab

Niki Fm Tab

   
Niki FM
Hawthorne Heights

HI, I got this cd today and I love this song so I decided to tab it. I did everything
exept the outro, wich was hard to tab. Instead I got it from “orcutt989”. This is my
third tab and im only 13.

Intro:

Guitar 2					x2
E:|---------------------------------------|
B:|---------------------------------------|
G:|-1---------4---6---1---------6---------|
D:|-2---------2---4---2---------4---------|
A:|---------------------------------------|
E:|---------------------------------------|


(Drum beat)


Guitar 1
E:|----------|
B:|----------|
G:|-6--------|
D:|-6--2--7--|
A:|-4--2--7--|
E:|----0--5--|

Verse:

Guitar 1
E:|-----------------------------------------|
B:|-----------------------------------------|
G:|-6-6---6-6-----------6-6---6-6-----------|
D:|-6-6---6-6-----------6-6---6-6-----------|
A:|-4-4---4-4-----------4-4---4-4-----------|
E:|-----------------------------------------|
PM \_____________________________/

Guitar 2
E:|-----------------------------------------|
B:|-----------0-4-5-4-0-----------0-4-5-4-0-|
G:|-----------------------------------------|
D:|-----------------------------------------|
A:|-----------------------------------------|
E:|-----------------------------------------|

Guitar 1
E:|-----------------------------------------|
B:|-----------------------------------------|
G:|-----------------------------------------|
D:|-7-7---7-7-----------7-7---7-7---------9-|
A:|-7-7---7-7-----------7-7---7-7---------9-|
E:|-5-5---5-5-----------5-5---5-5---------7-|
PM \_____________________________/

Guitar 2
E:|-----------------------------------------|
B:|-----------0-4-5-4-0-----------0-4-5-4-0-|
G:|-----------------------------------------|
D:|-----------------------------------------|
A:|-----------------------------------------|
E:|-----------------------------------------|

Guitar 1
E:|-----------------------------------------|
B:|-----------------------------------------|
G:|-6-6---6-6-----------6-6---6-6-----------|
D:|-6-6---6-6-----------6-6---6-6-----------|
A:|-4-4---4-4-----------4-4---4-4-----------|
E:|-----------------------------------------|
PM \_____________________________/

Guitar 2
E:|-----------------------------------------|
B:|-----------0-4-5-4-0-----------0-4-5-4-0-|
G:|-----------------------------------------|
D:|-----------------------------------------|
A:|-----------------------------------------|
E:|-----------------------------------------|

Guitar 3
E:|-----------------------------------------|
B:|-9~--------------------------------------|
G:|-----------------------------------------|
D:|-----------------------------------------|
A:|-----------------------------------------|
E:|-----------------------------------------|

Guitar 1
E:|-----------------------------------------|
B:|-----------------------------------------|
G:|-----------------------------------------|
D:|-7-7---7-7-----------7-7---7-7---------9-|
A:|-7-7---7-7-----------7-7---7-7---------9-|
E:|-5-5---5-5-----------5-5---5-5---------7-|
PM \_____________________________/

Guitar 2
E:|-----------------------------------------|
B:|-----------0-4-5-4-0-----------0-4-5-4-0-|
G:|-----------------------------------------|
D:|-----------------------------------------|
A:|-----------------------------------------|
E:|-----------------------------------------|

Guitar 3
E:|-----------------------------------------|
B:|-7~--------------------------------------|
G:|---------------------6~------------------|
D:|-----------------------------------------|
A:|-----------------------------------------|
E:|-----------------------------------------|

Guitar 1
E:|-----------------------------------------|
B:|-----------------------------------------|
G:|-6-6---6-6-----------6-6---6-6-----------|
D:|-6-6---6-6-----------6-6---6-6-----------|
A:|-4-4---4-4-----------4-4---4-4-----------|
E:|-----------------------------------------|
PM \_____________________________/

Guitar 2
E:|-----------0-4-5-4-0-----------0-4-5-4-0-|
B:|-----------------------------------------|
G:|-----------------------------------------|
D:|-----------------------------------------|
A:|-----------------------------------------|
E:|-----------------------------------------|

Guitar 3
E:|-----------------------------------------|
B:|-5~--------------------------------------|
G:|-----------------------------------------|
D:|-----------------------------------------|
A:|-----------------------------------------|
E:|-----------------------------------------|

Guitar 1
E:|-----------------------------------------|
B:|-----------------------------------------|
G:|-----------------------------------------|
D:|-7-7---7-7-----------7-7---7-7-----------|
A:|-7-7---7-7-----------7-7---7-7-----------|
E:|-5-5---5-5-----------5-5---5-5-----------|
PM \_____________________________/

Guitar 2
E:|-----------0-4-5-4-0-----------0-4-5-4-0-|
B:|-----------------------------------------|
G:|-----------------------------------------|
D:|-----------------------------------------|
A:|-----------------------------------------|
E:|-----------------------------------------|

Guitar 3
E:|-----------------------------------------|
B:|-9~--------------------------------------|
G:|-----------------------------------------|
D:|-----------------------------------------|
A:|-----------------------------------------|
E:|-----------------------------------------|

Pre-Chorus:

Guitar 2					x2
E:|-------------------------------------|
B:|-------------------------------------|
G:|-6------9-----------6----------------|
D:|-------------------------------------|
A:|-------------------------------------|
E:|-------------------------------------|

Guitar 3					x2
E:|-----------------------------9---7---|
B:|-------------------------------------|
G:|--------9-----------------/9---9---9-|
D:|-------------------------------------|
A:|-------------------------------------|
E:|-------------------------------------|

Guitar 1
E:|----------|
B:|----------|
G:|-6--------|
D:|-6--2--7--|
A:|-4--2--7--|
E:|----0--5--|

Chorus:

Guitar 1
E:|-----------------------------|
B:|-----------------------------|
G:|-6-6-6-6-----6-6-6-6-----x-4-|
D:|-6-6-6-6-----6-6-6-6-----x-4-|
A:|-4-4-4-4-----4-4-4-4-----x-2-|
E:|-----------------------------|

Guitar 1
E:|---------------------------------|
B:|---------------------------------|
G:|-2-------4-------2-------4-------|
D:|-2-------4-------2-------4-------|
A:|-0-------2-------0-------2-------|
E:|---------------------------------|

Guitar 3
E:|-7---------------7---------------|
B:|-------7---------------7---------|
G:|---9---------------9-------------|
D:|---------------------------------|
A:|---------------------------------|
E:|---------------------------------|

Verse:

Guitar 1
E:|-----------------------------------------|
B:|-----------------------------------------|
G:|-6-6---6-6-----------6-6---6-6-----------|
D:|-6-6---6-6-----------6-6---6-6-----------|
A:|-4-4---4-4-----------4-4---4-4-----------|
E:|-----------------------------------------|
PM \_____________________________/

Guitar 2
E:|-----------------------------------------|
B:|-----------0-4-5-4-0-----------0-4-5-4-0-|
G:|-----------------------------------------|
D:|-----------------------------------------|
A:|-----------------------------------------|
E:|-----------------------------------------|

Guitar 1
E:|-----------------------------------------|
B:|-----------------------------------------|
G:|-----------------------------------------|
D:|-7-7---7-7-----------7-7---7-7---------9-|
A:|-7-7---7-7-----------7-7---7-7---------9-|
E:|-5-5---5-5-----------5-5---5-5---------7-|
PM \_____________________________/

Guitar 2
E:|-----------------------------------------|
B:|-----------0-4-5-4-0-----------0-4-5-4-0-|
G:|-----------------------------------------|
D:|-----------------------------------------|
A:|-----------------------------------------|
E:|-----------------------------------------|

Guitar 1
E:|-----------------------------------------|
B:|-----------------------------------------|
G:|-6-6---6-6-----------6-6---6-6-----------|
D:|-6-6---6-6-----------6-6---6-6-----------|
A:|-4-4---4-4-----------4-4---4-4-----------|
E:|-----------------------------------------|
PM \_____________________________/

Guitar 2
E:|-----------------------------------------|
B:|-----------0-4-5-4-0-----------0-4-5-4-0-|
G:|-----------------------------------------|
D:|-----------------------------------------|
A:|-----------------------------------------|
E:|-----------------------------------------|

Guitar 1
E:|-----------------------------------------|
B:|-----------------------------------------|
G:|-----------------------------------------|
D:|-7-7---7-7-----------7-7---7-7---------9-|
A:|-7-7---7-7-----------7-7---7-7---------9-|
E:|-5-5---5-5-----------5-5---5-5---------7-|
PM \_____________________________/

Guitar 2
E:|-----------------------------------------|
B:|-----------0-4-5-4-0-----------0-4-5-4-0-|
G:|-----------------------------------------|
D:|-----------------------------------------|
A:|-----------------------------------------|
E:|-----------------------------------------|

Guitar 1
E:|-----------------------------------------|
B:|-----------------------------------------|
G:|-6-6---6-6-----------6-6---6-6-----------|
D:|-6-6---6-6-----------6-6---6-6-----------|
A:|-4-4---4-4-----------4-4---4-4-----------|
E:|-----------------------------------------|
PM \_____________________________/
[ Tab from: http://www.guitartabs.cc/tabs/h/hawthorne_heights/niki_fm_tab_ver_10.html ]
Guitar 2
E:|-----------------------------------------|
B:|-----------0-4-5-4-0-----------0-4-5-4-0-|
G:|-----------------------------------------|
D:|-----------------------------------------|
A:|-----------------------------------------|
E:|-----------------------------------------|

Guitar 3
E:|-----------0-4-5-4-0-----------0-4-5-4-0-|
B:|-----------------------------------------|
G:|-----------------------------------------|
D:|-----------------------------------------|
A:|-----------------------------------------|
E:|-----------------------------------------|

Guitar 1
E:|-----------------------------------------|
B:|-----------------------------------------|
G:|-----------------------------------------|
D:|-7-7---7-7-----------7-7---7-7---------9-|
A:|-7-7---7-7-----------7-7---7-7---------9-|
E:|-5-5---5-5-----------5-5---5-5---------7-|
PM \_____________________________/

Guitar 1
E:|-----------------------------------------|
B:|-----------------------------------------|
G:|-6-6---6-6-----------6-6---6-6-----------|
D:|-6-6---6-6-----------6-6---6-6-----------|
A:|-4-4---4-4-----------4-4---4-4-----------|
E:|-----------------------------------------|
PM \_____________________________/

Guitar 2
E:|-----------------------------------------|
B:|-----------0-4-5-4-0-----------0-4-5-4-0-|
G:|-----------------------------------------|
D:|-----------------------------------------|
A:|-----------------------------------------|
E:|-----------------------------------------|

Guitar 3
E:|-----------0-4-5-4-0-----------0-4-5-4-0-|
B:|-----------------------------------------|
G:|-----------------------------------------|
D:|-----------------------------------------|
A:|-----------------------------------------|
E:|-----------------------------------------|

Guitar 1
E:|-----------------------------------------|
B:|-----------------------------------------|
G:|-----------------------------------------|
D:|-7-7---7-7-----------7-7---7-7---------9-|
A:|-7-7---7-7-----------7-7---7-7---------9-|
E:|-5-5---5-5-----------5-5---5-5---------7-|
PM \_____________________________/

Guitar 2
E:|-----------------------------------------|
B:|-----------0-4-5-4-0-----------0-4-5-4-0-|
G:|-----------------------------------------|
D:|-----------------------------------------|
A:|-----------------------------------------|
E:|-----------------------------------------|

Guitar 3
E:|-----------0-4-5-4-0-----------0-4-5-4-0-|
B:|-----------------------------------------|
G:|-----------------------------------------|
D:|-----------------------------------------|
A:|-----------------------------------------|
E:|-----------------------------------------|

Pre-Chorus:

Guitar 2
E:|-------------------------------------|
B:|-------------------------------------|
G:|-6------9-----------6----------------|
D:|-------------------------------------|
A:|-------------------------------------|
E:|-------------------------------------|

Guitar 3
E:|-----------------------------9---7---|
B:|-------------------------------------|
G:|--------9-----------------/9---9---9-|
D:|-------------------------------------|
A:|-------------------------------------|
E:|-------------------------------------|

Guitar 2
E:|-------------------------|
B:|-----4-------------------|
G:|-----------------2-------|
D:|---6-----------2---------|
A:|-4-----------0-----------|
E:|-------------------------|

Chorus:

Guitar 1
E:|-----------------------------|
B:|-----------------------------|
G:|-6-6-6-6-----6-6-6-6-----x-4-|
D:|-6-6-6-6-----6-6-6-6-----x-4-|
A:|-4-4-4-4-----4-4-4-4-----x-2-|
E:|-----------------------------|

Guitar 1
E:|---------------------------------|
B:|---------------------------------|
G:|-2-------4-------2-------4-------|
D:|-2-------4-------2-------4-------|
A:|-0-------2-------0-------2-------|
E:|---------------------------------|

Guitar 3
E:|-7---------------7---------------|
B:|-------7---------------7---------|
G:|---9---------------9-------------|
D:|---------------------------------|
A:|---------------------------------|
E:|---------------------------------|

Guitar 1
E:|----------|
B:|----------|
G:|-6--------|
D:|-6--2--7--|
A:|-4--2--7--|
E:|----0--5--|

Guitar 1
E:|-----------------------------|
B:|-----------------------------|
G:|-6-6-6-6-----6-6-6-6-----x-4-|
D:|-6-6-6-6-----6-6-6-6-----x-4-|
A:|-4-4-4-4-----4-4-4-4-----x-2-|
E:|-----------------------------|

Guitar 1
E:|---------------------------------|
B:|---------------------------------|
G:|-2-------4-------2-------4-------|
D:|-2-------4-------2-------4-------|
A:|-0-------2-------0-------2-------|
E:|---------------------------------|

Guitar 3
E:|-7---------------7---------------|
B:|-------7---------------7---------|
G:|---9---------------9-------------|
D:|---------------------------------|
A:|---------------------------------|
E:|---------------------------------|

Bridge:

Guitar 1
E:|--------------------------------------------------------------|
B:|--------------------------------------------------------------|
G:|-6------------------------------------------------------------|
D:|-6------------------------------------------------------------|
A:|-4------------------------------------------------------------|
E:|--------------------------------------------------------------|

Guitar 3
E:|-----------------------------------------------------------------|
B:|-----------------------------------------------------------------|
G:|-----------------------------------------------------------------|
D:|-----------------------------------------------------------------|
A:|-4-4-4-4-4-4-4-4-4-4-4-4-4-4-4-4-6-6-6-6-6-6-6-6-7-7-7-7-7-7-7-7-|
E:|-----------------------------------------------------------------|

E:|-----------------------------------------------------------------|
B:|-----------------------------------------------------------------|
G:|-----------------------------------------------------------------|
D:|-----------------------------------------------------------------|
A:|-----------------------------------------------------------------|
E:|-3-3-3-3-3-3-3-3-3-3-3-3-3-3-3-3-5-5-5-5-5-5-5-5-5-5-5-5-5-5-5-5-|

Guitar 1
E:|-----------------------------------------------------------------|
B:|-----------------------------------------------------------------|
G:|-6~--------------------------------------------------------------|
D:|-6~-----------------feedback-------------------------------------|
A:|-4~--------------------------------------------------------------|
E:|-----------------------------------------------------------------|

Guitar 3
E:|-----------------------------------------------------------------|
B:|-----------------------------------------------------------------|
G:|-----------------------------------------------------------------|
D:|-----------------------------------------------------------------|
A:|-4-4-4-4-4-4-4-4-4-4-4-4-4-4-4-4-6-6-6-6-6-6-6-6-7-7-7-7-7-7-7-7-|
E:|-----------------------------------------------------------------|

E:|-----------------------------------------------------------------|
B:|-----------------------------------------------------------------|
G:|-----------------------------------------------------------------|
D:|-----------------------------------------------------------------|
A:|-----------------------------------------------------------------|
E:|-3-3-3-3-3-3-3-3-3-3-3-3-3-3-3-3-5-5-5-5-5-5-5-5-5-5-5-5-5-5-5-5-|

Guitar 1				x2
E:|---------------------------------|
B:|---------------------------------|
G:|-13------14--16--13------14------|
D:|---------------------------------|
A:|-11------12--14--11------12------|
E:|---------------------------------|

Guitar 3				x2
E:|---------------------------------|
B:|---------------------------------|
G:|-1-------4---6---1-------6-------|
D:|-2-------2---4---2-------4-------|
A:|---------------------------------|
E:|---------------------------------|

Guitar 1							x2
E:|-------------------------------------------------------------------|
B:|-------------------------------------------------------------------|
G:|-6---6----------6---6-----4---4--------2---2----------4---4--------|
D:|-6---6---2-2----6---6---2-4---4---2----2---2---2-2----4---4---2-2--|
A:|-4---4---2-2----4---4---2-2---2---2----0---0---2-2----2---2---2-2--|
E:|---------0-0------------0---------0------------0-0------------0-0--|
PM         \___/          \_/       \_/          \___/          \___/

Guitar 1										x2
E:|-------------------------------------------------------------------|
B:|-------------------------------------------------------------------|
G:|-6---6----------6---6-----4---4--------2---2----------4---4--------|
D:|-6---6---2-2----6---6---2-4---4---2----2---2---2-2----4---4---2-2--|
A:|-4---4---2-2----4---4---2-2---2---2----0---0---2-2----2---2---2-2--|
E:|---------0-0------------0---------0------------0-0------------0-0--|
PM         \___/          \_/       \_/          \___/          \___/

Guitar 3							x2
E:|-12----12----11----12----7-----7-----------------|
B:|-------------------------------------------------|
G:|-----9-----9-----9-----9-----6-----6---8---9---8-|
D:|---9-----9-----9-----9-----9-----9--/9---9---9---|
A:|-------------------------------------------------|
E:|-------------------------------------------------|

Outro:

Guitar 3							x2
E:|-12----12----11----12----7-----7-----------------|
B:|-------------------------------------------------|
G:|-----9-----9-----9-----9-----6-----6---8---9---8-|
D:|---9-----9-----9-----9-----9-----9--/9---9---9---|
A:|-------------------------------------------------|
E:|-------------------------------------------------|

Guitar 1							x2
E:|-------------------------------------------------|
B:|-------------------------------------------------|
G:|-1-----------4-----6-----1-----------4-----------|
D:|-2-----------2-----4-----2-----------2-----------|
A:|-------------------------------------------------|
E:|-------------------------------------------------|

E:|-0---|
B:|-0---|
G:|-2---|
D:|-2---|
A:|-0---|
E:|-0---|