Hawthorne Heights - Niki Fm Chords & Tabs

 

Niki Fm Chords & Tabs

Hawthorne Heights Chords & Tabs

Version: 1 Type: Bass Tab 0 ratings
1 star 2 stars 3 stars 4 stars 5 stars
comments

Niki Fm Bass Tab

   
Band: Hawthorne Heights
Song: Niki FM
Tabber: 555_Maggot_666

Standard Tuning (E,A,D,G)

Intro
G|------------------|
D|------------------| x2
A|-4~--6-7--0~--2~--|
E|------------------|

Interlude
G|---------|
D|---------|
A|-4-------|
E|---0-5~--|

Verse
G|---------------------------------|
D|---------------------------------| x3
A|-44-44---44-44---00-00---00-00-2-|
E|---------------------------------|

Pre-Chorus
G|------------------|
D|------------------|
A|-4~--6~-7~-6-2-0--|
E|------------------|

G|---------------|
D|---------------|
A|-4~--7-6~--4-2-|
E|---------------|

G|---------|
D|---------|
A|-4-------|
E|---0-5~--|

Chorus
G|--------------------------|
D|--------------------------|
A|-4444-4444-2--0~-2~-0~-2~-|
E|--------------------------|

Verse
G|---------------------------------|
D|---------------------------------| x2
A|-44-44---44-44---00-00---00-00-2-|
E|---------------------------------|

G|--------------------------------------|
D|--------------------------------------|
A|-44-44---44-44---00-00-[Pause]-00-00--|
E|--------------------------------------|
[ Tab from: http://www.guitartabs.cc/tabs/h/hawthorne_heights/niki_fm_btab.html ]
G|-------------------------------|
D|-------------------------------|
A|-44-44---44-44---00-00---00-00-|
E|-------------------------------|

Pre-Chrous
G|---------------------|
D|---------------------|
A|-4~--6~-7~-6-2-0--4~-|
E|---------------------|

Chorus
G|--------------------------|
D|--------------------------|
A|-4444-4444-2--0~-2~-0~-2~-|
E|--------------------------|

G|---------|
D|---------|
A|-4-------|
E|---0-5~--|

G|-----------------------------|
D|-----------------------------|
A|-4444-4444-2--0~-2~-0~-2~--4-|
E|-----------------------------|

Bridge
G|----------------|
D|----------------| x2
A|-4~--6-7--0~--2~|
E|----------------|

G|-------------------------------|
D|-------------------------------| x3
A|-44-----44---22---00----22-----|
E|----00-----0----0----00----00--|

G|----------------------------------|
D|----------------------------------|
A|-44-----44---22---00----22-----4~-|
E|----00-----0----0----00----00-----|

Outro
G|-----------------|
D|-----------------|
A|-/4~--6-7-0~--2~-|
E|-----------------|

G|-----|
D|-----|
A|-0~--|
E|-----|

Very easy and quite touching! Have fun and Bass it up! :)
Comments