Hawthorne Heights - Light Sleeper Chords & Tabs

 

Light Sleeper Chords & Tabs

Hawthorne Heights Chords & Tabs

Version: 2 Type: Tab

Light Sleeper Tab

pretty sure THIS is how it goes christ i messed up on the last one

Intro
|-----------------------------------||-------------------|
|-----------------------------------||-------------------|
|-----------------------------------||-------------------|
|------9--------9--------9----------||-------------9---9-|  X4
|-11-9-7-7-11-9-7-7-11-9-7-7-11-9-7-||-11--11-9--9-7-9-7-|
|-9 -7---5-9 -7---5-9 -7---5-9 -7-5-||-9 --9 -7--7---7---|

Pre Chorus      Chorus
|----------|-----------------------------------------------||-----|
|----------|-----------------------------------------------||-----|
|----------|-----------------------------------------------||-----|
|----------|-----------------999-------------------999-----||-----|  
|--9999-11-|--11-11-11-9-9-9-777-777-11-11-11--999-777-777-||--7--|   X16
|--7777-9 -|--9 -9 -9 -7-7-7-----555-9 -9 -9 --777-----555-||--5--|

Bridge
|-----------------------------------------------|
|-----------------------------------------------|
|-----------------------------------------------|
|-----------------------------------------------|
|-11-11-11-11-11-11--777777-999999-777777-------|  X5
|-9--9--9--9--9--9---555555-777777-555555-------|

Chorus
|-----------------------------------------------|
|-----------------------------------------------|
|-----------------------------------------------|
|-----------------999-------------------999-----|  
|--11-11-11-9-9-9-777-777-11-11-11--999-777-777-|
|--9 -9 -9 -7-7-7-----555-9 -9 -9 --777-----555-|


[ Tab from: http://www.guitartabs.cc/tabs/h/hawthorne_heights/light_sleeper_tab_ver_2.html ]
|---------------------------------------------|
|---------------------------------------------|
|---------------------------------------------|
|---------------------------------------------|
|---------------------------------------------|
|-11-11-11-11-11-11-11-11-99999999------------|  X2
|-9--9--9--9--9--9--9--9--77777777------------|

|-----------------------------|     |---------------------------------|
|-----------------------------|     |---------------------------------|
|-----------------------------|     |---------------------------------|
|-----------------------------|  X2 |-9999999---9999999---9999999-----|
|-777777-9-11-11-11-11-11-11--|     |-7777777-9-7777777-9-7777777-9---|
|-555555-7-9--9--9--9--9--9---|     |---------7---------7---------7---|


|-----------------------------------------|
|-----------------------------------------|
|-----------------------------------------|
|-----------------------------------------|
|-999999999999999 (16)-77777777-99999-----|
|-777777777777777------55555555-77777-----|


Chorus
|-----------------------------------------------|
|-----------------------------------------------|
|-----------------------------------------------|
|-----------------999-------------------999-----|  
|--11-11-11-9-9-9-777-777-11-11-11--999-777-777-|
|--9 -9 -9 -7-7-7-----555-9 -9 -9 --777-----555-|

Outro
|-------------------------------------------------------------------|
|-------------------------------------------------------------------|
|-------------------------------------------------------------------|
|-11-11-11-11-11-11-11-11-44444444-11-11-11-11-11-11-11-11-44444444-|
|-9 -9 -9 -9 -9 -9 -9 -9 -22222222-9 -9 -9 -9 -9 -9 -9 -9 -22222222-|

|-------------------------------|
|-------------------------------|
|-------------------------------|
|------9--------9--------9------|
|-11-9-7-7-11-9-7-7-11-9-7-7-11-|
|-9- 7---5-9 -7---5-9 -7---5-9 -|