Hawthorne Heights - Light Sleeper Chords & Tabs

 

Light Sleeper Chords & Tabs

Hawthorne Heights Chords & Tabs

Version: 1 Type: Tab

Light Sleeper Tab

I'm pretty sure this is right if it isn't jus email me any corrections at colinaker1@hotmail.com


Intro

|---------------------------------------------|------------|
|---------------------------------------------|------------|
|---------------------------------------------|------------|
|-6-----9-----6-----9-----6-----9-----6-------|-6-6---6--6-|  X4
|-4--9--7--7--4--9--7--7--4--9--7--7--4--9--7-|-4-49-9494--|
|----7-----5-----7-----5-----7-----5-----7--5-|----7-7-7---|

Pre Chorus      Chorus

|---------|----------------------------------|-----|
|---------|----------------------------------|-----|
|---------|----------------------------------|-----|
|---------|--666-----999-----666-----999-----|-----|  
|--4444-6-|--444-999-777-777-444-999-777-777-|--7--|   X16
|--2222-4-|------777-----555-----777-----555-|--5--|

Bridge

|-----------------------------------------------|
|-----------------------------------------------|
|-----------------------------------------------|
|-----------------------------------------------|
|-11-11-11-11-11-11--777777-999999-777777-------|  X5
|-9--9--9--9--9--9---555555-777777-555555-------|

Chorus



[ Tab from: http://www.guitartabs.cc/tabs/h/hawthorne_heights/light_sleeper_tab.html ]
|---------------------------------------------|
|---------------------------------------------|
|---------------------------------------------|
|---------------------------------------------|
|---------------------------------------------|
|-11-11-11-11-11-11-11-11-99999999------------|  X2
|-9--9--9--9--9--9--9--9--77777777------------|

|-----------------------------|     |---------------------------------|
|-----------------------------|     |---------------------------------|
|-----------------------------|     |---------------------------------|
|-----------------------------|  X2 |-9999999---9999999---9999999-----|
|-777777-9-11-11-11-11-11-11--|     |-7777777-9-7777777-9-7777777-9---|
|-555555-7-9--9--9--9--9--9---|     |---------7---------7---------7---|


|-----------------------------------------|
|-----------------------------------------|
|-----------------------------------------|
|-----------------------------------------|
|-999999999999999 (16)-77777777-99999-----|
|-777777777777777------55555555-77777-----|


Chorus



Outro
|------------------------------------------------------------------------|
|------------------------------------------------------------------------|
|------------------------------------------------------------------------|
|-------------------------------------6---9---6---9---6---9---6----------|
|-66666666-44444444-66666666-44444444-4-9-7-7-4-9-7-7-4-9-7-7-4----------|
|-44444444-22222222-44444444-22222222---7---5---7---5---7---5------------|