Hawthorne Heights - Light Sleeper Chords & Tabs

 

Light Sleeper Chords & Tabs

Hawthorne Heights Chords & Tabs

Version: 1 Type: Bass Tab 0 ratings
1 star 2 stars 3 stars 4 stars 5 stars
comments

Light Sleeper Bass Tab

   
Band: Hawthorne Heights
Song: Light Sleeper
Tabber: 555_Maggot_666
Tuning: Standard (E,A,D,G)

Intro
G|-----------------|
D|-----------------| x2  
A|-4~--2~--0~--2~--|
E|-----------------|

G|-------------|
D|-------------|
A|-4~--7~--0~--|
E|-------------|

G|------------|
D|------------|
A|-4~--7~--2~-|
E|------------|

Verse
G|----------------------------|
D|----------------------------| x4
A|-44444444-00000000-22-00----|
E|-------------------------2~-|

[Pause for Guitar Palm Muting]

Chorus
G|------------------------------------|
D|------------------------------------|
A|-44444444-00000000-2222222222222222-|
E|------------------------------------|

G|---------------------------------------|
D|---------------------------------------|
A|-44444444-00000000-2222222222222222-0~-|
E|---------------------------------------|
[ Tab from: http://www.guitartabs.cc/tabs/h/hawthorne_heights/light_sleeper_btab.html ]
Verse
G|-------------------------------------|
D|-------------------------------------| x5
A|-44-44444-00-00000-22-22222-00-0-----|
E|---------------------------------222-|

[Feedback Pause]

Chorus
G|------------------------------------|
D|------------------------------------| x2
A|-44444444-00000000-2222222222222222-|
E|------------------------------------|

G|------------------------|
D|------------------------| x2
A|-44----2222222222222222-|
E|------------------------|

Bridge
G|-----------|
D|-----------| x2
A|-0~--2--4~-|
E|-----------|

G|-------------------------------|
D|-------------------------------| x2 
A|-000000000-22-4444444444444444-|
E|-------------------------------|

Cresendo
[Come in 2:34]
G|----------------|
D|----------------|
A|-00000000-------|
E|----------00000-|

Chorus
G|------------------------------------|
D|------------------------------------| x3
A|-44444444-00000000-2222222222222222-|
E|------------------------------------|

G|---------------------------------------|
D|---------------------------------------|
A|-44444444-00000000-2222222222222222-4~-|
E|---------------------------------------|

This might not be right but it's the best i got...
Comments