Hawthorne Heights - Life On Standby Chords & Tabs

 

Life On Standby Chords & Tabs

Hawthorne Heights Chords & Tabs

Version: 2 Type: Tab 0 ratings
1 star 2 stars 3 stars 4 stars 5 stars
comments

Life On Standby Tab

   
----------------------------------------------------------------------------                      
Life On Standby - Hawthorne Heights
----------------------------------------------------------------------------

By:LostinApril
Email:aprilfalling@hotmail.com

Tuning:Standard

I'm sure this tab isn't all that correct, but it does sound pretty close.This is only my
second tab so please try hard to understand what I am trying to tab out.I'm still trying
to get the hang of all this.Thanks!

                                  ENJOY!

Intro
e|----------------------------|----------------------------|
B|----------------------------|----------------------------|
G|----------------------------|----------------------------|
D|-2-2-2--2-2-2--2-2-2--2-2-2-|--2-2-2--2-2-2--2-2-2--xxxx-|
A|-2-2-2--2-2-2--2-2-2--2-2-2-|--2-2-2--2-2-2--2-2-2--xxxx-|
E|-0-0-0--0-0-0--0-0-0--0-0-0-|--0-0-0--0-0-0--0-0-0--xxxx-|
   . . .  . . .  . . .  . . .    . . .  . . .  . . .


e|----------------|-----------------------|----------------|
B|-------8--7-----|-----------------------|-------5--8-----|
G|-------x--x-----|-----------------------|-------x--x-----|
D|-------5--4---x-|-----------------------|-------2--5---x-|
A|-2-2----------x-|-(2)-------------------|-2-2----------x-|
E|-0-0----------x-|-(0)-------------------|-0-0----------x-|
   . .               1  2  3  4             . .
                      (Count)
                      
e|-------------|--------------------------|--------------------------------|
B|-------------|--------------------------|--------------------------------|
G|-------------|-(7)----------(5)---------|--------------------------------|
D|-(2)---------|-(7)----------(5)---------|-(2)-------------(2)------------|
A|-(2)---------|-(5)----------(3)---------|-(2)-------------(2)------------|
E|-(0)---------|--------------------------|-(0)-------------(0)------------|
    1  2  3  4    1  2  3  4   1  2  3  4    1  2  3  4      1  2  3  4
      Count)      (Count)       (Count)       (Count)         (Count)

e|----------------|-----------------------|----------------|
B|-------8--7-----|-----------------------|-------5--8-----|
G|-------x--x-----|-----------------------|-------x--x-----|
D|-------5--4---x-|-----------------------|-------2--5---x-|
A|-2-2----------x-|-(2)-------------------|-2-2----------x-|
E|-0-0----------x-|-(0)-------------------|-0-0----------x-|
   . .               1  2  3  4             . .
                      (Count)
                      
e|-------------|--------------------------|--------------------------------|
B|-------------|--------------------------|--------------------------------|
G|-------------|-(7)----------(5)---------|--------------------------------|
D|-(2)---------|-(7)----------(5)---------|-(2)-------------(2)------------|
A|-(2)---------|-(5)----------(3)---------|-(2)-------------(2)------------|
E|-(0)---------|--------------------------|-(0)-------------(0)------------|
    1  2  3  4    1  2  3  4   1  2  3  4    1  2  3  4      1  2  3  4
      Count)      (Count)       (Count)       (Count)         (Count)


                                              Play verse 4 times
e|----------------|------------|------------|----------|-------------------|
B|----------------|------------|----------7-|----------|----------7--------|
G|----------------|------------|--------7---|--------7-|--------7----------|
D|----------------|-2----------|---9--------|---9------|---9---------------|
A|-2-2--2--2-2--2-|-2----------|-7---7------|-0---0----|-------------------|
E|-0-0--0--0-0--0-|-0----------|------------|----------|-8---8-------------|
                    1  2  3  4
                     (Count)


e|---------------------------------------|
B|-----------7-------------------7-------|
G|-----7-------7---7-------7-------7---7-|
D|---9---9-------9-------9---9-------9---|
A|-0-------------------0-----------------|
E|---------------------------------------|

[ Tab from: http://www.guitartabs.cc/tabs/h/hawthorne_heights/life_on_standby_tab_ver_2.html ]
(1:17) Play twice.       
e|--------------------------------|------------------------------|
B|--------------------------------|------------------------------|
G|--------------------------------|--------9---------7---------5-|
D|-5-5-5-5-5-5-5-5-5-5-5-5-5--5/7-|-2-2-2--x--2-2-2--x--2-2-2--x-|
A|-3-3-3-3-3-3-3-3-3-3-3-3-3--3/5-|-2-2-2--7--2-2-2--5--2-2-2--3-|
E|--------------------------------|-0-0-0-----0-0-0-----0-0-0----|
                                    . . .     . . .     . . .

                   Only on second time.
e|---------------|----------------------------|----------------------------|
B|---------------|----------------------------|----------------------------|
G|--------4-5----|----------------------------|----------------------------|
D|-2-2-2--x-x--x-|-(5)------------(7)---------|---------------------------|
A|-2-2-2--2-3--x-|-(3)------------(5)---------|----------------------------|
E|-0-0-0-------x-|----------------------------|----------------------------|
   . . .            1  2  3  4     1  2  3  4
                     (Count)        (Count)

Play 4 times.
e|-------------|----------|-------------|----------------------------------|
B|----------7--|----------|-----------7-|---------7----------------7-------|
G|--------7----|--------7-|---------7---|-----7-----7---7------7-----7---7-|
D|---9---------|---9------|---9---------|---9---9-----9------9---9-----9---|
A|-7---7-------|-0---0----|-------------|-0----------------0---------------|
E|-------------|----------|-8---8-------|----------------------------------|


(2:25) Play twice.
e|--------------------------------|------------------------------|
B|--------------------------------|------------------------------|
G|--------------------------------|--------9---------7---------5-|
D|-5-5-5-5-5-5-5-5-5-5-5-5-5--5/7-|-2-2-2--x--2-2-2--x--2-2-2--x-|
A|-3-3-3-3-3-3-3-3-3-3-3-3-3--3/5-|-2-2-2--7--2-2-2--5--2-2-2--3-|
E|--------------------------------|-0-0-0-----0-0-0-----0-0-0----|
                                    . . .     . . .     . . .

                   Only on second time.
e|---------------|----------------------------|----------------------------|
B|---------------|----------------------------|----------------------------|
G|--------4-5----|----------------------------|----------------------------|
D|-2-2-2--x-x--x-|-(5)------------(7)---------|---------------------------|
A|-2-2-2--2-3--x-|-(3)------------(5)---------|----------------------------|
E|-0-0-0-------x-|----------------------------|----------------------------|
   . . .            1  2  3  4     1  2  3  4
                     (Count)        (Count)

(2:54)
e|-------|-------|-------|-------|---------|---------|---------------------|
B|-------|-------|-------|-------|---------|---------|---------------------|
G|----4--|-------|-------|-------|---------|---------|-5-5-5-5--5-5-5-5----|
D|----5--|----4--|----2--|----4--|-2-2-2-2-|-2-2-2-2-|-5-5-5-5--5-5-5-5----|
A|----7--|----5--|----3--|----5--|-2-2-2-2-|-2-2-2-2-|-3-3-3-3--3-3-3-3----|
E|-0-----|-0-----|-0-----|-0-----|-0-0-0-0-|-0-0-0-0-|-3-3-3-3--3-3-3-3----|


e|---------|---------|--------------------|
B|---------|---------|--------------------|
G|---------|---------|-5-5-5-5--5-5-5-5~--|
D|-2-2-2-2-|-2-2-2-2-|-5-5-5-5--5-5-5-5~--|
A|-2-2-2-2-|-2-2-2-2-|-3-3-3-3--3-3-3-3~--|
E|-0-0-0-0-|-0-0-0-0-|-3-3-3-3--3-3-3-3~--|



e|-----------|----------|----------|-----------------------|
B|-12\-------|-7\-------|-8\-------|----12--------12----12-|
G|-12\-------|-7\-------|-8\-------|-12----12--12----12----|
D|-----------|----------|----------|-----------------------|
A|-----------|----------|----------|-----------------------|
E|-----------|----------|----------|-----------------------|

                                 Play twice.
e|----------------------------|-------------------|------------------------|
B|----12--------12----12--12--|-7---7--8-----7----|-7---7--8-----7---------|
G|-12----12--12----12---------|---7-------7-----7-|---7-------7-----7------|
D|----------------------------|-------------------|------------------------|
A|----------------------------|-------------------|------------------------|
E|----------------------------|-------------------|------------------------|


Play until song is over.
e|-14------14--19--14------15--14--------14--19-|--------------------------|
B|-----15--------------15-----------15----------|--------------------------|
G|----------------------------------------------|--------------------------|
D|----------------------------------------------|--------------------------|
A|----------------------------------------------|--------------------------|
E|----------------------------------------------|--------------------------|






| /  slide up
| \  slide down
| h  hammer-on
| p  pull-off
| ~  vibrato
| +  harmonic
| x  Mute note
===============================================================================
Comments