Hawthorne Heights - Cross Me Off Your List Chords & Tabs

 

Cross Me Off Your List Chords & Tabs

Hawthorne Heights Chords & Tabs

Version: 3 Type: Tab

Cross Me Off Your List Tab

here is my solo what i learned and i hope yo can rate me on this solo and t is right and 
know it man lol well PEACE and goodluck learning the tab ya'll. oh Yah and if u have 
comments then e-mail me at canadian_guitarist_06@hotmail.com

Guitar 1 (drop D)play during solo
A|-----------------------------|
E|-----------------------------|
G|-----------------------------|
A|-2-----0------2------5-------|
E|-2-----0------2------5-------|
D|-2-----0------2------5-------|
[ Tab from: http://www.guitartabs.cc/tabs/h/hawthorne_heights/cross_me_off_your_list_tab_ver_3.html ]
Guitar 2 Solo
A|-----------7-------------------------------7-----------7~----|
E|7----7-9-7---7----7----7-9-7-10-7----7-9-7---7---7-9-7-------|
G|-------------------------------------------------------------|
A|-------------------------------------------------------------|
E|-------------------------------------------------------------|
D|-------------------------------------------------------------|

Guitar 1 playing during the end of this solo
|---------------|
|---------------|
|---------------|
|-9--0--2--5-5--|
|-9--0--2--5-5--|
|-9--0--2--5-5--|

Still Guitar 2 playing solo

A|-7-(18x)--9-(18x)-10-(18x)-12-(14x)--15-(14x)-15b-----|
E|------------------------------------------------------|
G|------------------------------------------------------|
A|------------------------------------------------------|
E|------------------------------------------------------|
D|------------------------------------------------------|

****************************************************************************
hope this sounds great to you and please please rate me and be a bro. and rate me, be my 
bro-G! well Peace im outtie.
***************************************************************************