Hawkwind - Whos Gonna Win The War Chords & Tabs

 

Whos Gonna Win The War Chords & Tabs

Hawkwind Chords & Tabs

Version: 1 Type: Bass Tab 0 ratings
1 star 2 stars 3 stars 4 stars 5 stars
comments

Whos Gonna Win The War Bass Tab

   
-------------------------------------------------------------------------------
                    Who's Gonna Win the War - Hawkwind
-------------------------------------------------------------------------------
Tabbed by: Jay
E-mail: explorer57@rocketmail.com
Tuning: Standard


Main Riff:                                      x6
G|-------9--------------------------------------|
D|----9----9--10--9-----------------------------|
A|-7-----------------7--5-----------------------|
E|----------------------------------------------|

[ Tab from: http://www.guitartabs.cc/tabs/h/hawkwind/whos_gonna_win_the_war_btab.html ]
PreChorus / Chorus outro:
G|-------------5---------------------------7-----------------|
D|-----------------------------------------------------------|
A|--3---1-3--3----3--3-1-3--3---3-5--3-5-5----5--3--5--5-----|
E|-----------------------------------------------------------|


Chorus: "Who's gonna win the war now, who's gonna win the war?"
G|--------------------------------------------------------------------|
D|--------------------------------------------------------------------|
A|--7-7-7-7-5-7---7-7-7-7-5-7---7-7-7-7-5-7-7-7-7-5-7-7-7-7-5--7------|
E|--------------0-----------------------------------------------------|


| /  slide up
| \  slide down
| h  hammer-on
| p  pull-off
| ~  vibrato
| +  harmonic
| x  Mute note
===============================================================================
Comments