Hawkwind - Silver Machine Chords & Tabs

 

Silver Machine Chords & Tabs

Hawkwind Chords & Tabs

Version: 2 Type: Tab 0 ratings
1 star 2 stars 3 stars 4 stars 5 stars
comments

Silver Machine Tab

##################################################################################
# This file is the author's own work and represents their interpretation of the  #
# song. You may only use this file for private study, scholarship, or research.  #
##################################################################################
[ Tab from: http://www.guitartabs.cc/tabs/h/hawkwind/silver_machine_tab_ver_2.html ]
HAWKWIND-SILVER MACHINE
                                by Spacemanblue       
intro and Verse
flanger with wind FX.......
        X4                      X4                   X4                    X4                
E-------------------------------------------------------------------------12--------
B-------------------------------------------------------------------------12--------
G-------------------------------------------------------------------------9---------
D------------------------------------7--7--9--7--------9--9--11-9---------9---------
A---7--7--9--7-------9--9--11-9------5--5--5--5--------7--7--7--7---------7---------
E---5--5--5--5-------7--7--7--7-----------------------------------------------------

 CHORUS:               ab.lib on acid 
                                                                                                                                               
E-------------------------------------------4--2--------4-4-2-2-2-------------------
B-------------------------------------------5--3--------5-5-3-3-3-------------------
G-------------------------------------------4--2--------4-4-2-2-2-------------------
D---------9--7--------9-9-7---4-4-4--------------------------------4-4-4------------
A---------7--5--------7-7-5---2-2-2--------------------------------2-2-2------------
E---0--0--------0--0-----------------0--0---------0--0------------------------------
        



  that's it and remember Mushroom are fun and can picked in the autum.
         walk not the earth but fly thorugh space                                  
Comments