Hawksley Workman - We Will Still Need A Song Chords & Tabs

 

We Will Still Need A Song Chords & Tabs

Hawksley Workman Chords & Tabs

Version: 1 Type: Bass Tab 0 ratings
1 star 2 stars 3 stars 4 stars 5 stars
comments

We Will Still Need A Song Bass Tab

   
Verse
G|----------------------------------------------------|
D|----------------------------------------------------|
A|-5-5-5-5-5-5-3-3-3-3-3-3-2-2-2-2-2---------/7-7-7-7-|
E|-----------------------------------0-0-0-0----------|
[ Tab from: http://www.guitartabs.cc/tabs/h/hawksley_workman/we_will_still_need_a_song_btab.html ]
Chorus
G|-------------------------------------------|
D|-------------------------------------------|
A|-------------3-3-3-3-3-3-0-0-0-0-0---------|
E|-0-0-0-0-0-0-----------------------3-3-3-3-|

Bridge/Outro
G|-----------------------------------------------|
D|-----------------------------------------------|
A|-3-3-3-3-3-3-5-5-5-5-5-5-3-3-3-3-3-3-5-5-5-5-5-|
E|-----------------------------------------------| 

Second time play this at the end. (slide slowly)
G|-------|
D|-------|
A|-5/19\-|
E|-------|

Okay! i think thats it. sounds good to me

Tabbed by Jess (Aka rocker82)
Comments