Hawks - Wish Chords & Tabs

 

Wish Chords & Tabs

Hawks Chords & Tabs

Version: 2 Type: Tab

Wish Tab

The Hawks - The Wish

Hehe, this is my solo..The whole time i was too lazy to figure out but now the time has 
Enjoy!!!


e|-///12~--12-15-12-15b(17)r-15--12-12--12-12-15-12--15/17--17-17--|
b|-----------------------------------------------------------------|
g|-----------------------------------------------------------------|
d|-----------------------------------------------------------------|
a|-----------------------------------------------------------------|
E|-----------------------------------------------------------------|

e|-15--------------------------------------------------------------|
b|----17-15-17b(19)-15----15-15-17b(19)-15-------------------------|
g|---------------------16------------------16b(17)-16-16-----------|
d|-----------------------------------------------------------------|
a|-----------------------------------------------------------------|
E|-----------------------------------------------------------------|
[ Tab from: http://www.guitartabs.cc/tabs/h/hawks/wish_tab_ver_2.html ]
e|----------------------------------------------------------------|
b|-13--/-12--/-10--/-8--------------------------------------------|
g|-15b-/-14b-/-12b-/-10b--9/--12-12-14-14----9-7-9----------------|
d|------------------------9/--12-12-12-12-------------------------|
a|----------------------------------------------------------------|
E|----------------------------------------------------------------|

e|----------------------------------------------------------------|
b|----------------------------------------------------------------|
g|-9p7-------------7--9---9-9p7--------------7-9------------------|
d|-----9p7-----7h9--------------9p7----------7-9------------------|
a|---------7h9----------------------9p7---------------------------|
E|--------------------------------------7h10----------------------|

e|-------------------7-7---7-7----7--7h10p7-----------------------|
b|-8-8-8-8--10-10----7-7---7-7--------------10p7----7-------------|
g|-9-9-9-9--9--9---9b----9b-----9b----------------9b---9--7-------|
d|----------------------------------------------------------------|
a|----------------------------------------------------------------|
E|----------------------------------------------------------------|

e|----------------------------------------------------------------|
b|-8-10-8-10/12-12-12-10-12-12--13-12-12--10-8-7-8-7--------------|
g|----------------------------------------------------9-7-9~~-----|
d|----------------------------------------------------------------|
a|----------------------------------------------------------------|
E|----------------------------------------------------------------|