Hawks - When You Find Me Chords & Tabs

 

When You Find Me Chords & Tabs

Hawks Chords & Tabs

Version: 1 Type: Tab 0 ratings
1 star 2 stars 3 stars 4 stars 5 stars
comments

When You Find Me Tab

Here Is The Solo, it's very easy!!! Have fun ;-)

e|-----------------------------------------------------------------------|
b|----10--8-8-7---7h8-7h8-10--8h10-8h10---10/12--10--12/13--13-13-13-13--|
g|-9---------------------------------------------------------------------|
d|-----------------------------------------------------------------------|
a|-----------------------------------------------------------------------|
E|-----------------------------------------------------------------------|

e|-----------------------------------------|
b|-12-10-8-8-------------------------------|
g|-----------9--7-----7--------------------|
d|-----------------10---10--9--7--5--5--4--|
a|-----------------------------------------|
E|-----------------------------------------|

e|------------------------0--1--3-/5--/7-8-10--|
b|-------------------1--3----------------------|
g|--------------2--4---------------------------|
d|------2--3--5--------------------------------|
a|-3--5----------------------------------------|
E|---------------------------------------------|

[ Tab from: http://www.guitartabs.cc/tabs/h/hawks/when_you_find_me_tab.html ]
e|------------------------------------------------------------|
b|------------------------------------------------------------|
g|-9---7----7----7----7---------------------------------------|
d|-------10--------10-------7/9--7/10--9----------------------|
a|------------10--------10----------------10~-10~-10-10-9-10--|
E|------------------------------------------------------------|

e|------------------------------------------------------------|
b|------------------------------------------------------------|
g|-----------------------------------11-12-11-12-12/14-14-14--|
d|-7-------------7--9--7-------7-8-9--------------------------|
a|---9--9--10--9---------10--9--------------------------------|
E|------------------------------------------------------------|

e|------------------------------------------------------------|
b|------------------------------------------------------------|
g|-12-11h12p11h12p11-12/14-12-12-11----11-12-11---------9-----|
d|----------------------------------12----------12----9-------|
a|------------------------------------------------------------|
E|------------------------------------------------------------|

e|--------------------------------------------------------------|
b|--------------------------------------------------------------|
g|----------------------9---------------------------------------|
d|-12--12-12--10-9----9---10--10-10/12--12--10-9----9-10--------|
a|-----------------10----------------------------10------10-10--|
E|--------------------------------------------------------------|

That's It!!!
Comments