Hawk Nelson - One Thing I Have Left Chords & Tabs

 

One Thing I Have Left Chords & Tabs

Hawk Nelson Chords & Tabs

Version: 2 Type: Tab

One Thing I Have Left Tab

   
NOTE: THIS IS ALL IN FLAT TUNING *AND* DROP D

(not really an intro) verse 1: guitar 1 ++++++++(r=10th fret)+++++++++
e-------------------------------------------------------------------------->
B-------------------------------------------------------------------------->
G----7777rrrr5555999977--77555rr--55257-777755559999rrrr77--77555rr--55257->
D-(0)7777rrrr5555999977--77555rr--55257-777755559999rrrr77--77555rr--55257->
A-(0)555588883333777755--5533388--33035-555533337777888855--5533388--33035->
D-(0)---------------------------------------------------------------------->
     ****************                   ****************
will someone please radio for help cause I think Iím allergic to myself

verse 1:
e----------------------------------------------------------------------->
B----------------------------------------------------------------------->
G-7777rrrr5555999977--77555rr--55257-777755559999rrrr77--77555rr--55257->
D-7777rrrr5555999977--77555rr--55257-777755559999rrrr77--77555rr--55257->
A-555588883333777755--5533388--33035-555533337777888855--5533388--33035->
D----------------------------------------------------------------------->
  ****************                   ****************
they think they can throw us all away gotta stop it before itís all too late

pre-chorus: guitar 1
e-----1-1-----3-3-----5-5-----3-3-----1-1-----3-3------------------>
B-----1-1-----3-3-----5-5-----3-3-----1-1-----3-3------------------>
G-3-3-3-3-5-5-5-5-7-7-7-7-5-5-5-5-3-3-3-3-5-5-5-5-77--77555rr\----->
D-3-3-3-3-5-5-5-5-7-7-7-7-5-5-5-5-3-3-3-3-5-5-5-5-77--77555rr\----->
A-1-1-1-1-3-3-3-3-5-5-5-5-3-3-3-3-1-1-1-1-3-3-3-3-55--5533388\----->
D------------------------------------------------------------------>
thereís got to be a better way they dissect everything we say to try to
make us feel this way

chorus: guitar 1
e------------------------------------------------------------------>
B------------------------------------------------------------------>
G-33333333555555557777777755555555-+33333355555555777-555-rrr-555-->
D-33333333555555557777777755555555-+33333355555555777-555-rrr-555-->
A-11111111333333335555555533333333-+11111133333333555-333-888-333-->
D------------------------------------------------------------------>
and you can take the one thing I have left Iíd give it all away for so much
less could even take the heart inside my chest whoa

chorus:
e-------------------------------------------------------------------->
B-------------------------------------------------------------------->
G-33333333555555557777777755555555-+3333335555555577--77555rr--55257->
D-33333333555555557777777755555555-+3333335555555577--77555rr--55257->
A-11111111333333335555555533333333-+1111113333333355--5533388--33035->
D-------------------------------------------------------------------->
and you can take the one thing I have left beat me to the ground and take
my breath but you canít take who I am whoa

verse 2: guitar 1
e------------------------------------55------33--0-01-------------------->
B--------------------------------------336633--11-1---------------------->
G-----------------77--77555rr--55257------------------77--77555rr--55257->
D-----------------77--77555rr--55257------------------77--77555rr--55257->
A-----------------55--5533388--33035------------------55--5533388--33035->
D------------------------------------------------------------------------>
and I swear we were born to let you down we scream but never make a sound
[ Tab from: http://www.guitartabs.cc/tabs/h/hawk_nelson/one_thing_i_have_left_tab_ver_2.html ]
verse 2:
e-55------33--0-01-------------------55------33--0----------------------->
B---336633--11-1-----------------------336633--11------------------------>
G-----------------77--77555rr--55257--------------547-77--77555rr--55257->
D-----------------77--77555rr--55257--------------327-77--77555rr--55257->
A-----------------55--5533388--33035----------------5-55--5533388--33035->
D------------------------------------------------------------------------>
we point but donít know which direction we are America right now

---REPEAT PRE-CHORUS

chorus: guitar 1
e------------------------------------------------------------------>
B------------------------------------------------------------------>
G-33333333555555557777777755555555-+33333355555555777-555-rrr-555-->
D-33333333555555557777777755555555-+33333355555555777-555-rrr-555-->
A-11111111333333335555555533333333-+11111133333333555-333-888-333-->
D------------------------------------------------------------------>
and you can take the one thing I have left Iíd give it all away for so much
less could even take the heart inside my chest whoa

chorus:
e-------------------------------------------------->
B-------------------------------------------------->
G-33333333555555557777777755555555-+33333355555555->
D-33333333555555557777777755555555-+33333355555555->
A-11111111333333335555555533333333-+11111133333333->
D-------------------------------------------------->
and you can take the one thing I have left beat me to the ground and take
my breath but you canít take who I am whoa

fill: guitar 1
e-------------------------------------------------------------------------->
B-3-33333-3---3-33333-3---3-33333-3---3-33333-3---------------------------->
G----------3-2---------3-2---------3-2---------3-2---------3-2---------3-2->
D----------------------------------------------3-20-00000-03-20-00000-03-2->
A----------------------------------------------1-00-00000-01-00-00000-01-0->
D-------------------------------------------------0-00000-0---0-00000-0---->

fill:
e-------------------------->
B-------------------------->
G----------3-2------------->
D-0-00000-03-20-0003-5-3-2->
A-0-00000-01-00-0003-5-3-2->
D-0-00000-0---0-0003-5-3-2->

bridge: guitar 1
e----------------------------------------------------------67--------78->
B----------------------------------------------------------67--------78->
G----------3-2---------3-2---------3-2---------------------------------->
D-0-00000-03-20-00000-03-20-00000-03-20-0003-5-3-2-00-00-00--00-00-00--->
A-0-00000-01-00-00000-01-00-00000-01-00-0003-5-3-2-00-00-00--00-00-00--->
D-0-00000-0---0-00000-0---0-00000-0---0-0003-5-3-2-00-00-00--00-00-00--->
how can I be the same how can I take the blame how come I am so tired of
all these charades how can I be the one how can I hold the gun

bridge:
e---------8r--------------------------------------------------------------->
B---------8r---------55-5-----------55-5-----------55-5-------------------->
G------------------------55-------------55-------------55------------5~---->
D-00-00-00--00-00-00-------00-00-00-------00-00-00-------0035320035325~---->
A-00-00-00--00-00-00-------00-00-00-------00-00-00-------0035320035323~---->
D-00-00-00--00-00-00-------00-00-00-------00-00-00-------003532003532------>
how can I see if everyone else is to blame donít wanna be the (hey hey)
donít wanna see the (hey hey) cause we point the finger, think everyone
else is to blame

bridge:
e-------------------------------------------------------------------------->
B-3-3-3-3------------------------------------------------------------------>
G-2-2-2-2-------7\--------------------------------------------------------->
D-0-0-0-0-0035327\--------------------------------------------------------->
A-0-0-0-0-0035325\--------------------------------------------------------->
D-0-0-0-0-0035320---------------------------------------------------------->
blame everyone else is to blame