Hawk Nelson - Letters To The President Chords & Tabs

 

Letters To The President Chords & Tabs

Hawk Nelson Chords & Tabs

Version: 2 Type: Tab 0 ratings
1 star 2 stars 3 stars 4 stars 5 stars
comments

Letters To The President Tab

   
This is the continuation of the song tht i did earlier wich is above this one.This song 
awesome so.... Salutations.

VERSE 1:
E---------|
B---------|
G-6-HOLD--
D-6-HOLD--
A-4-HOLD--
E---------

THING RIGHT BEFORE CHORUS PART OF VERSE WHERE IT SPEEDS UP
E-----------------------------------------------------|
B-----------------------------------------------------|
G-6666-5-8-6666-5-10-8-6666-5-8-6-11111110108-XXXXXX--|
D-6666-5-8-6666-5-10-8-6666-5-8-6-11111110108-XXXXXX--|
A-4444-3-6-4444-3-8--6-4444-3-6-4-9-9-9-8-8-6-XXXXXX--|
E-----------------------------------------------------|

THIS IS THE "DO THEY EVEN KNOW " PART
E-----------------------------------------------|
B-----------------------------------------------|
G-----------------------------------------------|
D-6-------6-----6---------6-------6-----6-------|
A-4-------3-----4--4------4-------3-----4--4----|
E------------------2-----------------------2----|
   DO THEY EVEN KNOW.....  DO THEY EVEN KNOW....

CHORUS:
E---------------------------------------------|
B---------------------------------------------|
G-66666---------------------------------------|YOU NEED TO REPEAT THIS TO
D-66666---------88888-44444-66-88-1010--------|COMPLETE THE CHORUS
A-44444-444-9-8-88888-44444-44-66-8-8-4-6-8-6-|
E---------------66666-22222-------------------|
[ Tab from: http://www.guitartabs.cc/tabs/h/hawk_nelson/letters_to_the_president_tab_ver_2.html ]
VERSE 2 INTRO:
E----------------------------------------------------|
B----------------------------------------------------|
G-6666-5-8-6666-5-10-8-6666-5-8-6-11111110108-XXXXXX-|
D-6666-5-8-6666-5-10-8-6666-5-8-6-11111110108-XXXXXX-|
A-4444-3-6-4444-3-8--6-4444-3-6-4-9-9-9-8-8-6-XXXXXX-|
E----------------------------------------------------|

TOMMY IS A TRACK STAR THING IS BASICALLY THIS
E-------------------------------             ---------------------------|
B-------------------------------             ---------------------------|
G-----6-----6-------6-------6---             ---------------------------|
D---6---6-----6---6---6---6---6- REPEAT THEN -66666666------------------|CONT
A-4-------4---------------------             -44444444-44444444-6666666-|INUE
E---------------2-------4-------             ----------22222222-4444444-|

CONTINUATION OF LINE ABOVE:
E--------------------------------------C P -----------------------CHORUS-|
B--------------------------------------O A -----------------------CHORUS-|
G--------------------------------------O R --------10-------------CHORUS-|
D-----------66666666-------------------L T -8------8------11--10--CHORUS-|
A-44444444--44444444-44444444-66666666-    -6-------------9---8---CHORUS-|
E-22222222-----------22222222-44444444-    -----------------------CHORUS-|

THTS IS ALL I KNOW IM SRRY IF ITS WRONG. I TRIED TO PLAY IT BY EAR AND THIS IS MY BEST. 
FUN PLAYING THE BEST INSTRUMENT EVER INVENTED.SO................Salutaions.
Comments