Hawk Nelson - California Chords & Tabs

 

California Chords & Tabs

Hawk Nelson Chords & Tabs

Version: 2 Type: Tab 0 ratings
1 star 2 stars 3 stars 4 stars 5 stars
comments

California Tab

hawk nelson is one of, if not the best christian band ever... this is an awesome song
by them. most of it isnt in exact strumming pattern. play it with the cd to get it,
its pretty simple. please rate this, it should be almost perfect...

Intro:

e---------------------------------------------------------|
b---------------------------------------------------------|
g---------------------------------------------------------|
d------8-6-4-------8-9-8-------8-6-4-------8-9-8-6-8------|
a--9-9---------9-9-----------------------------------9~---|
E--------------------------6-6---------6-6----------------|


Verse:
e------------------------------------------------------------------|
b------------------------------------------------------------------|
g------------------------------------------------------------------|
d-----4-------4------7-----4---------4-------4------9----11--------|  x2
a---4---4---4------9-----6---------4---4---4------9----11----------|
E--2------2------9-----6---------2-------2------7-----9------------|
[ Tab from: http://www.guitartabs.cc/tabs/h/hawk_nelson/california_tab_ver_2.html ]
Pre-chorus:
e-------------------------------------------|
b-------------------------------------------|
g-------------------------------------------|
d--4444-4444--99--66----4444-4444--99-66----|
a--4444-4444--99--66----4444-4444--99-66----|
E--2222-2222--77--44----2222-2222--77-44----|
P.M.........................................
My bags are packed...

For the "ooohhh" part, just keep hitting this:
e-------|
b-------|
g-------|
d-4444--|
a-4444--|
E-2222--|


Chorus
e---------------------------------------|
b---------------------------------------|
g--------4444--------------4444--6666---|
d--4444--4444--6666--4444--4444--6666---| x2
a--4444--2222--6666--4444--2222--4444---|
E--2222--------4444--2222---------------|

Little riff thing after Chorus:
e--------------------------------------------------------|
b--------------------------------------------------------|
g--------------------------------------------------------|
d------8-6-4------8-9-8-6-8------8-6-4------8-9-8-6-8----|
a--9-9--------9-9----------------------------------------|
E----------------------------6-6--------6-6--------------|


Solo:
e---------------------------------------------------------|
b--------------------------------------7-7-7-2------------|
g--6-6-6-6-3---3-4-3---6-6-6-3-4-3--------------1-3-4-3---|
d------------6----------------------6~--------------------|
a---------------------------------------------------------|
E---------------------------------------------------------|

thats it. comments/corrections email me at xxazizzlexx@sbcglobal.net
Comments