Hawk Nelson - California Chords & Tabs

 

California Chords & Tabs

Hawk Nelson Chords & Tabs

Version: 1 Type: Tab 0 ratings
1 star 2 stars 3 stars 4 stars 5 stars
comments

California Tab

   
Intro licks
  F#		  B	 C#
E|-------------------------------------|
A|----------------2-2----2-2-----------|
D|4-4---4-4-4-----------4------------4-|
G|---3-1-----3-4-3---3-1----3-4-3-1-3--|
B|-------------------------------------|
E|-------------------------------------|


Verse
F# B Bb
F# B C#
F# B Bb
F# B C#
[ Tab from: http://www.guitartabs.cc/tabs/h/hawk_nelson/california_tab.html ]
(palm mute)
F# B Bb
F# B C#
F# B Bb
F# B C#
F#

Chorus
F# B C#
F# B C#
Ebm D C#
B C#


Solo
E|---------------------------------------------------------|
A|---------------------------------------------------------|
D|-----------------------------12---------------------------|
G|12-12-12-12-9-9-7-9-10-9-12-12-12-9-10-9--------7-9-10-7-9-7-9-7-9-7
B|--------------------------------------8------------------|
E|-------------------------------8-8-8-8-------------------|
Comments