Have Mercy - Lets Talk About Your Hair Chords & Tabs

 

Lets Talk About Your Hair Chords & Tabs

Have Mercy Chords & Tabs

Version: 1 Type: Tab 0 ratings
1 star 2 stars 3 stars 4 stars 5 stars
comments

Lets Talk About Your Hair Tab

   
-------------------------------------------------------------------------------
                   Let's Talk About Your Hair - Have Mercy
-------------------------------------------------------------------------------
Tabbed by: maybeimmatt
E-mail: maybeimmatt@gmail.com
their website, check it out! ----> havemercy.bandcamp.com
Tuning: Standard



Intro

e|----------|----------|----------|------------|
B|----------|----------|----------|------------|
G|----------|----------|----------|------------|
D|---1------|---3------|---9------|--8b--8b----|
A|---2------|---4------|---10-----|--9b--9b----|
E|----------|----------|----------|------------|


Verse

   I went...  bed...     dreamed... things...
e|----------|----------|----------|------------|
B|----------|----------|----------|------------|
G|----------|----------|----------|------------|
D|---1------|---3------|---9------|--8b--8b----|
A|---2------|---4------|---10-----|--9b--9b----|
E|----------|----------|----------|------------|


   A god...   and me...  and how... wings...
e|----------|----------|----------|------------|
B|----------|----------|----------|------------|
G|----------|----------|----------|------------|
D|---1------|---3------|---9------|--8b--8b----|
A|---2------|---4------|---10-----|--9b--9b----|
E|----------|----------|----------|------------|


  I always...wondered...stopped...  me...    
e|----------|----------|----------|------------|
B|----------|----------|----------|------------|
G|----------|----------|----------|------------|
D|---1------|---3------|---9------|--8b--8b----|
A|---2------|---4------|---10-----|--9b--9b----|
E|----------|----------|----------|------------|


  can't see...clearly
e|----------|----------|----------|------------|
B|----------|----------|----------|------------|
G|----------|----------|----------|------------|
D|---1------|---3------|---9------|--8b--8b----|
A|---2------|---4------|---10-----|--9b--9b----|
E|----------|----------|----------|------------|

Chorus 1:

   But I...   I know...  care...
e|----------|----------|----------|------------|
B|----------|----------|----------|------------|
G|----------|----------|----------|------------|
D|----------|----------|----------|------------|
A|---2------|---4------|---5------|---5--------|
E|----------|----------|----------|------------|


   hair...    know...    anywhere...
e|----------|----------|----------|------------|
B|----------|----------|----------|------------|
G|----------|----------|----------|------------|
D|----------|----------|----------|------------|
A|---2------|---4------|---5------|---5--------|
E|----------|----------|----------|------------|


   nothing's  won...     seems...
e|----------|----------|----------|------------|
B|----------|----------|----------|------------|
G|----------|----------|----------|------------|
D|----------|----------|----------|------------|
A|---2------|---4------|---5------|---5--------|
E|----------|----------|----------|------------|


   tell...    about...   the man...
e|----------|----------|----------|------------|
B|----------|----------|----------|------------|
G|----------|----------|----------|------------|
D|----------|----------|----------|------------|
A|---2------|---4------|---5(hold)|------------|
E|----------|----------|----------|------------|


   me...
e|----------|----------|----------|------------|
B|----------|----------|----------|------------|
G|---4------|---6------|---7------|---7--------|
D|-----(x8)-|-----(x8)-|-----(x8)-|-----(x8)---|
A|---2------|---4------|---5------|---5--------|
E|----------|----------|----------|------------|

[ Tab from: http://www.guitartabs.cc/tabs/h/have_mercy/lets_talk_about_your_hair_tab.html ]
e|----------|----------|----------|------------|
B|----------|----------|----------|------------|
G|---4------|---6------|---7------|---7--------|
D|-----(x8)-|-----(x8)-|-----(x8)-|-----(x8)---|
A|---2------|---4------|---5------|---5--------|
E|----------|----------|----------|------------|

Chorus 2

   But I...   I know...  care...
e|----------|----------|----------|------------|
B|----------|----------|----------|------------|
G|---4------|---6------|---7------|---7--------|
D|-----(x8)-|-----(x8)-|-----(x8)-|-----(x8)---|
A|---2------|---4------|---5------|---5--------|
E|----------|----------|----------|------------|


   hair...    know...    anywhere...
e|----------|----------|----------|------------|
B|----------|----------|----------|------------|
G|---4------|---6------|---7------|---7--------|
D|-----(x8)-|-----(x8)-|-----(x8)-|-----(x8)---|
A|---2------|---4------|---5------|---5--------|
E|----------|----------|----------|------------|


   But I...   I know...  care...
e|----------|----------|----------|------------|
B|----------|----------|----------|------------|
G|---4------|---6------|---7------|---7--------|
D|-----(x8)-|-----(x8)-|-----(x8)-|-----(x8)---|
A|---2------|---4------|---5------|---5--------|
E|----------|----------|----------|------------|


   hair...    know...    anywhere...
e|----------|----------|----------|------------|
B|----------|----------|----------|------------|
G|---4------|---6------|---7------|---7--------|
D|-----(x8)-|-----(x8)-|-----(x8)-|-----(x8)---|
A|---2------|---4------|---5------|---5--------|
E|----------|----------|----------|------------|

Verse 2

  I went...  bed...     dreamed... things...
e|----------|----------|----------|------------|
B|----------|----------|----------|------------|
G|---4------|---6------|---7------|---7--------|
D|----(hold)|----(hold)|----(hold)|----(hold)--|
A|---2------|---4------|---5------|---5--------|
E|----------|----------|----------|------------|


   A god...   and me...  and how... wings...
e|----------|----------|----------|------------|
B|----------|----------|----------|------------|
G|---4------|---6------|---7------|---7--------|
D|----(hold)|----(hold)|----(hold)|----(hold)--|
A|---2------|---4------|---5------|---5--------|
E|----------|----------|----------|------------|


Chorus 2

   But I...   I know...  care...
e|----------|----------|----------|------------|
B|----------|----------|----------|------------|
G|---4------|---6------|---7------|---7--------|
D|-----(x8)-|-----(x8)-|-----(x8)-|-----(x8)---|
A|---2------|---4------|---5------|---5--------|
E|----------|----------|----------|------------|


   hair...    know...    anywhere...
e|----------|----------|----------|------------|
B|----------|----------|----------|------------|
G|---4------|---6------|---7------|---7--------|
D|-----(x8)-|-----(x8)-|-----(x8)-|-----(x8)---|
A|---2------|---4------|---5------|---5--------|
E|----------|----------|----------|------------|


   But I...   I know...  care...
e|----------|----------|----------|------------|
B|----------|----------|----------|------------|
G|---4------|---6------|---7------|---7--------|
D|-----(x8)-|-----(x8)-|-----(x8)-|-----(x8)---|
A|---2------|---4------|---5------|---5--------|
E|----------|----------|----------|------------|


   hair...    know...    anywhere...
e|----------|----------|----------|------------|
B|----------|----------|----------|------------|
G|---4------|---6------|---7------|---7--------|
D|-----(x8)-|-----(x8)-|-----(x8)-|-----(x8)---|
A|---2------|---4------|---5------|---5--------|
E|----------|----------|----------|------------|

************************************

| /   slide up
| \   slide down
| h   hammer-on
| p   pull-off
| ~   vibrato
| +   harmonic
| x   Mute note
| b   Bend
| pb  Pre-bend
| br  Bend release
| pbr Pre-bend release
| brb Bend release bend

************************************
Comments