Haunted - Silencer Chords & Tabs

 

Silencer Chords & Tabs

Haunted Chords & Tabs

Version: 1 Type: Tab 0 ratings
1 star 2 stars 3 stars 4 stars 5 stars
comments

Silencer Tab

   
THE HAUNTED - SILENCER
>From the album: THE HAUNTED MADE ME DO IT

Transcribed by Jason Semanek
JSemanek@TDIPOWER.COM



Eb Tuning (Eb,Ab,Db,Gb,Bb,Eb)

Riff A
|-----------------------------------|
|-----------------------------------|
|---------------------------0---0---|Gtr I
|----2-1-2-1-2-1------2-1-2-0-2-0---|
|-2--2-1-2-1-2-1---2--2-1-2---2-----|
|-0--------------3-0--------------3-|

|------------------------------------|
|------------------------------------|
|------------------------------------|Gtr II
|---------------------------------/5-|
|------------------2-----------------|
|------------------0-----------------|

|-----------------------------------|
|-----------------------------------|
|---------------------------0---0---|Gtr I&II
|----2-1-2-1-2-1------2-1-2-0-2-0---|    
|-2--2-1-2-1-2-1---2--2-1-2---2-----|
|-0--------------3-0--------------3-|

Riff B
|----------------------------------------|
|----------------------------------------|
|----------------------------------------|Gtr I&II
|----------------------------------------|
|--9h10-10---10h11-8---9h10-10---10h11-8-|
|-7----7----7-----7---7----7----7-----7--|

Riff A
Riff B

Riff C
|--------------------------------------|
|--------------------------------------|
|--------------------------------------|Gtr I&II
|--8h9-9--9h10-7---8h9-9--9h10-7-------|
|-7---7--7----7---7---7--7----7--------|
|--------------------------------------|








Riff D1
|--------------------------------------|
|--------------------------------------|
|--------------------------------------|Gtr I&II
|-9-8-7-4----9-8-7-4---4-3-2-----------|
|----------------------2-1-0-4---------|
|----------------------------2---------|

Riff E
|------------------------------------------------------------------------|
|------------------------------------------------------------------------|
|------------------------------------------------------------------------| Gtr 
|---9-----------9-8-7-4------9----------------8h9p8---8------------------| I&II
|--7----7---10----------45--7----7---10---9-10------10-10-9-7-9-10-7\-45-|
|-0---00--00---0-0-0-0--23-0---00--00---------------------------------23-|

Riff B
Riff A
Riff B
Riff C
[ Tab from: http://www.guitartabs.cc/tabs/h/haunted/silencer_tab.html ]
Riff D2
|--------------------------------------|
|--------------------------------------|
|--------------------------------------|Gtr I&II
|-9-8-7-4----9-8-7-4---4-3-----\-------|
|----------------------2-1-----\-------|
|--------------------------------------|


Riff F
|------------------------------------|
|------------------------------------| 
|------------------------------------| GTR I
|-5-4-3-2-1-0---2--5-4-3----------7\-|
|-5-4-3-2-1-0---2--5-4-3-66666666-7\-|
|-------------3-0--------------------|

|------------------------------------------------| 
|------------------------------------------------|
|------------------------------------------------| GTR II
|----------------------------------------------/-|
|-2------------2----------------2-----------2--/-| 
|-0------------0----------------0-----------0----|

|------------------------------------|
|------------------------------------| 
|------------------------------------| GTR I&II
|-5-4-3-2-1-0---2--5-4-3----------7\-|
|-5-4-3-2-1-0---2--5-4-3-66666666-7\-|
|-------------3-0--------------------|







Riff G
|--------------------------| 
|--------------------------|
|--------------------------| GTR I&II
|-------------------555555-| 
|-444444555555444444333333-|
|-222222333333222222-------| 

Riff H Under Lead
|-------------------------------------------------------|
|-------------------------------------------------------|
|-------------------------------------------------------|GTR II
|--------------------------1--------------------------1-|
|-2------------2-------------2------------2-------------|
|-0-0000000000-0-0000000000--0-0000000000-0-0000000000--|

|--------------------------| 
|--------------------------|
|--------------------------| GTR II
|-------------------555555-| 
|-444444555555444444333333-|
|-222222333333222222-------|

Riff I
|------------------------------------------|
|------------------------------------------|
|------------------------------------------| 
|-4-3-2----4-3-2----4-3-2----4-3-2-------2-|
|-2-1-0-4--2-1-0-4--2-1-0-4--2-1-0-4-3-4-2-|
|-------2--------2--------2--------2-1-2-0-|


Riff A
Riff B
Riff A
Riff B

Riff D3
|--------------------------------------------|
|--------------------------------------------|
|--------------------------------------------|Gtr I&II
|-9-8-7-4----9-8-7-4----9-8-7-4--4-3-2-------|
|--------------------------------2-1-0-4-3-4-|
|--------------------------------------2-1-2-|
Comments