Haunted - Revelation Chords & Tabs

 

Revelation Chords & Tabs

Haunted Chords & Tabs

Version: 1 Type: Tab

Revelation Tab

   
Band- Haunted
Song- revelation

Tuning: Eb

Riff A x4
|--------------------------------------------------|
|--------------------------------------------------|
|--------------------------------------------------|
|--------------------------------------------------|
|--------------------------------------------------|
|--222233330000222277776666--22223333000--00-0-00--|
                                          .. . ..
Riff B
|------------------------------------------------|
|------------------------------------------------|
|------------------------------------------------|
|-----3p1p0-----------------3p1p0----------------|
|---------------3p1p0-------------------3p1p0----|
|--0---------0-----------0-----------0-----------|

Riff A x2

Fill
|-----------------------|
|-----------------------|
|-----------------------|
|-----------------------|
|-----------------------|
|--2222-3333-7777-5555--|

Riff B
Riff A x2
Fill
[ Tab from: http://www.guitartabs.cc/tabs/h/haunted/revelation_tab.html ]
Riff C (Bridge) x2
|-------------------------------------------------------|
|-------------------------------------------------------|
|-------------------------------------------------------|
|-------------------------------------------------------|
|-------------------------------------------------------|
|--3-0--0000000--3p0-77--0000000--3-0--0000000--3p0-77--|
        .......          .......       .......

Riff D
|-------------------------------------------------|
|-------------------------------------------------|
|-------------------------------------------------|
|-------------------------------------------------|
|-------------------------------------------------|
|--222233330000222233337777222233330000--00-0-00--|
                                         .. . ..
Riff A x2

Riff E
|-----------------------------------------------------------------------|
|-----------------------------------------------------------------------|
|-----------------------------------------------------------------------|
|-----------------------------------------------------------------------|
|-----------------------------------------------------------------------|
|-2--3--0--2--7--6--2--3--0--00-0-00--2--3--0--2--7--6--2--3--0--00-0-0-|
                             .. . ..                             .. . .
Fill

Then the last ending notes:
|------------------|
|------------------|
|------------------|
|------------------|
|------------------|
|--22--33--55--66--|