Haunted - My Shadow Chords & Tabs

 

My Shadow Chords & Tabs

Haunted Chords & Tabs

Version: 1 Type: Tab

My Shadow Tab

My Shadow - The Haunted

Tabbed By Thumper Bunny

I do not appreciate people stealing my tabs and saying that it's their own work. I made 
because I was tired of searching for it. It's crap I know but hey.

Guitar 1

intro/chorus
|------|
|------|
|------|
|5-3-2-| x4
|5-3-2-|
|5-3-2-|
[ Tab from: http://www.guitartabs.cc/tabs/h/haunted/my_shadow_tab.html ]
verse (- 1:11)
|--------     ---------------------------------------------|
|--------     ---------------------------------------------|
|-------- x35 ---------------------------------------------|
|----5---     -----6-5-7-----5-----5-----------------6-5-7-|
|3-4-----     -3-4-------3-4---3-4---3-4-3-3-4-3-3-4-------|
|--------     ---------------------------------------------|

Distortion
|-------------------------------|
|-------------------------------|
|-------------------------------|
|----6-5-----6-5-7---5---5---5--| x2
|3-4-----3-4-------3---3---3----|
|-------------------------------|