Haunted - Doa Chords & Tabs

 

Doa Chords & Tabs

Haunted Chords & Tabs

Version: 1 Type: Bass Tab

Doa Bass Tab

Band- Haunted
Song- DOA

Tuning: CGCF

Riff 1
[-------------------------------------------------------------------------------------------]
[-------------------------------------------------------------------------------------------]
[-----------------------------------------------------------------------------------0-2-3-5-]
[-00-00-0-00-00-0-00-0--00-0-00-0-100100-00-00-0-00-00-0-00-0--00-00-0-00-00-100100---------]

Riff 2
[------------------------------------------------------|
[------------------------------------------------------|
[---------0-2-3-5---------0-2-5-3-----5-3-2------------|
[-0-0-0-0---------0-0-0-0---------0-0-------5-5320-----|

Riff 3
[-----------]
[-----------]
[-----------]
[-1-1--1-1--]
[ Tab from: http://www.guitartabs.cc/tabs/h/haunted/doa_btab.html ]
Riff 4
[--------------------------------------------------------------------------------------------------|
[--------------------------------------------------------------------------------------------------|
[---------------------------------s6-6-4-4-4-4-3-3-3-5-2-------------------------------------------|
[-0-0-s6-6-4-4-4-4-3-3-3-2-2--0-0-------------------------0-0-s6-6-4-4-4-4-3-3-3-2-2-2-3s7-6-7h9p7-|

Riff 5
[----------------------------------]
[----------------------------------]
[----------------------------- 3~--]
[-0-s2-3-5-3-0-2-3-3-0-3-5-3-2-----]

Riff 6
[-------------------------------]
[-------------------------------]
[-------------------------------]
[-0-2-3-5-3-0-2-3-5-2-0-2-3-5-3-]

Riff 7
[-----------------------------------------------------------]
[-----------------------------------------------------------]
[-9-9-9-9-9-9-9-9-9-9-9-9-9-9-9-8-8-8-8-8-8-8-8-8-8-8-8-8-8-]
[-----------------------------------------------------------]