Haunted - Dark Intentions Chords & Tabs

 

Dark Intentions Chords & Tabs

Haunted Chords & Tabs

Version: 1 Type: Bass Tab

Dark Intentions Bass Tab

Band- Haunted
Song- Drak Intentions

tune down

F#||----------------------|----------------------|----------------------|
C#||----------------------|----------------------|----------------------|
G#||----------------------|----------------------|----------------------|
D#||--0--0------0--0------|--0--0------0--0------|--0--0------0--0------|


                                                                         
--------------------------|----------------------|----------------------|
--------------------------|----------------------|----------------------|
--------------------------|----------------------|----------------------|
--0--0--0--0--0--0--0--3--|--0--0------0--0------|--0--0------0--0------|


                                                                         
----------------------|--------------------------|----------------------|
----------------------|--------------------------|----------------------|
----------------------|--------------------------|----------------------|
--0--0------0--0------|--0--0--0--0--0--0--0--3--|--0--0------0--0------|


                                                                         
----------------------|----------------------|--------------------------|
----------------------|----------------------|--------------------------|
----------------------|----------------------|--------------------------|
--0--0------0--0------|--0--0------0--0------|--0--0--0--0--0--0--0--3--|


                                                                           
------------------------|--------7~--------------|------------------------|
--------9~---------8~---|-------------------8~---|--------9~---------8~---|
------------------------|------------------------|------------------------|
--0--0-------0--0-------|--0--0-------0--0-------|--0--0-------0--0-------|


                                                      
--------------------------|--------------------------|
--------------------------|--------------------------|
--------------------------|--------------------------|
--0--0--0--0--0--0--0--3--|--0--0--0--0--0--0--0--3--|


                                                      
--------------------------|--------------------------|
--------------------------|--------------------------|
--------------------------|--------------------------|
--0--0--0--0--0--0--0--3--|--0--0--0--0--0--0--0--3--|


                                                      
--------------------------|--------------------------|
--------------------------|--------------------------|
--------------------------|--------------------------|
--0--0--0--0--0--0--0--3--|--0--0--0--0--0--0--0--3--|


                                                      
--------------------------|--------------------------|
--------------------------|--------------------------|
--------------------------|--------------------------|
--0--0--0--0--0--0--0--3--|--0--0--0--0--0--0--0--3--|


                                                      
--------------------------|--------------------------|
--------------------------|--------------------------|
--------------------------|--------------------------|
--0--0--0--0--0--0--0--3--|--0--0--0--0--0--0--0--3--|


                                                      
--------------------------|--------------------------|
--------------------------|--------------------------|
--------------------------|--------------------------|
--0--0--0--0--0--0--0--3--|--0--0--0--0--0--0--0--2--|


                                                      
--------------------------|--------------------------|
--------------------------|--------------------------|
--------------------------|--------------------------|
--4--3--2--1--3--2--1--0--|--0--0--0--0--0--0--0--3--|

[ Tab from: http://www.guitartabs.cc/tabs/h/haunted/dark_intentions_btab.html ]
                                                      
--------------------------|--------------------------|
--------------------------|--------------------------|
--------------------------|--------------------------|
--0--0--0--0--0--0--0--3--|--0--0--0--0--0--0--0--2--|


                                                                         
--------------------------|---------------------|-----------------------|
--------------------------|---------------------|-----------------------|
--------------------------|---------------------|-----------------------|
--4--3--2--1--3--2--1--0--|--2--1--0------------|--------2--4--3--2--1--|


                                                                    
---------------------|-----------------------|---------------------|
---------------------|-----------------------|---------------------|
---------------------|-----------------------|---------------------|
--2--1--0------------|--------2--4--3--2--1--|--2--1--0------------|


                                                                      
-----------------------|---------------------|-----------------------|
-----------------------|---------------------|-----------------------|
-----------------------|---------------------|-----------------------|
--------2--4--3--2--1--|--2--1--0------------|--------2--4--3--2--1--|


                                                      
--------------------------|---------7~---------------|
---------9~----------8~---|---------------------8~---|
--------------------------|--------------------------|
--0-0-0-------0-0-0-------|--0-0-0-------0-0-0-------|


                                                      
--------------------------|--------------------------|
---------9~----------8~---|--------------------------|
--------------------------|--------------------------|
--0-0-0-------0-0-0-------|--0--0--0--0--0--0--0--3--|


                                                      
--------------------------|---------7~---------------|
---------9~----------8~---|---------------------8~---|
--------------------------|--------------------------|
--0-0-0-------0-0-0-------|--0-0-0-------0-0-0-------|


                                                      
--------------------------|--------------------------|
---------9~----------8~---|--------------------------|
--------------------------|--------------------------|
--0-0-0-------0-0-0-------|--0--0--0--0--0--0--0--3--|


                                                      
--------------------------|---------7~---------------|
---------9~----------8~---|---------------------8~---|
--------------------------|--------------------------|
--0-0-0-------0-0-0-------|--0-0-0-------0-0-0-------|


                                                      
--------------------------|--------------------------|
---------9~----------8~---|--------------------------|
--------------------------|--------------------------|
--0-0-0-------0-0-0-------|--0--0--0--0--0--0--0--3--|


                                                      
--------------------------|---------7~---------------|
---------9~----------8~---|---------------------8~---|
--------------------------|--------------------------|
--0-0-0-------0-0-0-------|--0-0-0-------0-0-0-------|


                                                                          
--------------------------|--------------------------|-------------------|
---------9~----------8~---|--------------------------|-------------------|
--------------------------|--------------------------|-------------------|
--0-0-0-------0-0-0-------|--0--0--0--0--0--0--0--3--|--0----------------|


                                                                             
------------------|------------------|------------------|------------------||
------------------|------------------|------------------|------------------||
------------------|------------------|------------------|------------------||
------------------|------------------|------------------|------------------||