Haunted - All Against All Chords & Tabs

 

All Against All Chords & Tabs

Haunted Chords & Tabs

Version: 1 Type: Tab 0 ratings
1 star 2 stars 3 stars 4 stars 5 stars
comments

All Against All Tab

   
-------------------------------------------------------------------------------
			     ALL AGAINST ALL - The Haunted
-------------------------------------------------------------------------------
Tabbed by: Billy Ross
Email: Fuel126@aol.com
                          This is only the intro up to the bridge
Tuning: Dropped D
(note: USE CONSECUTIVE DOWNSTROKES WHEN POSSIBLE)
e|-------------------------------------------------------------------------------|
B|-------------------------------------------------------------------------------|
G|--10--10------------6-7-9-7---------------------------10-10----------6-7-9-10--|
D|----------------------------8-8-----8-8\5-5-----5------------------------------|
A|--8----8------------4-5-7-5---------------------------8--8-----------4-5-7-8---|
E|----------0-0-0-0-0---------8-8-8-8-8-8\5-5-5-5-5-0-0------0-0-0-0-0-----------|

e|--------------------------------------|
B|--------------------------------------|
G|-----9-9------------------------------|
D|-8-8-8-8-7-7--------------------------|
A|----------------10----10----(repeat)--|
E|-8-8-8-8-7-7-/11---11-----------------|

e|------------------------------------------------------------------------------|
B|------------------------------------------------------------------------------|
G|--------7---------------------------------------------------------------------|
D|---0----7------------------------6---6---6-gb.5------------------0-----0-etc--|
A|---0----5-----0-3p0-8/10-0-7-6-5---5---5----------0-8-10-0-10--8-----8--------|
E|---0------22\-0-3p0-8/10-0-7-6--------------------0-8-10-0-10-9----9----------|
[ Tab from: http://www.guitartabs.cc/tabs/h/haunted/all_against_all_tab.html ]
e|---------------------------------------------------------------------------------------|
B|---------------------------------------------------------------------------------------|
G|---------------------------------------------------------------------------------------|
D|---------------------------------------------------------------------------------------|
A|-0-8-7-2-3-5-8-7-5-2-------------------------------------------------------------------|
E|-0-8-7-2-3-5-8-7-5-2-------------------------------------------------------------------|

e|-----------------------------------------------------------------------------------|
B|-----------------------------------------------------------------------------------|
G|-----------------------------------------------------------------------------------|
D|-6-----6---2-----------------------------------------------------------------------|
A|-5-7-2-5-7-4-----------------------------------------------------------------------|
E|-6-7-2-6-7-------------------------------------------------------------------------|
(repeat intro, verse and Chorus)
Bridge:
e|-----------------------------------------------|
B|-----------------------------------------------|
G|-----------------------------------------------|
D|-----------------------------------------------|
A|--3-5-3-5-0-3-5-3-5-3-3-5-3-5---7-8-7(repeat)--|
E|----------0---------3---------6-7--------------|

e|---------------------------------------------------------------------------|
B|---------------------------------------------------------------------------|
G|---------------------------------------------------------------------------|
D|---------------------------------------------------------------------------|
A|---------------------------------------------------------------------------|
E|---------------------------------------------------------------------------|

e|---------------------------------------------------------------------------|
B|---------------------------------------------------------------------------|
G|---------------------------------------------------------------------------|
D|---------------------------------------------------------------------------|
A|---------------------------------------------------------------------------|
E|---------------------------------------------------------------------------|

That's all I have fingured out now.  email me if you know any of the other parts.  all i 
is that im missing the rythem to the solo
| /  slide up
| \  slide down
| h  hammer-on
| p  pull-off
| ~  vibrato
| +  harmonic
| x  Mute note
| gb gradual bend
==============
Comments