Haunted - 99 Chords & Tabs

 

99 Chords & Tabs

Haunted Chords & Tabs

Version: 1 Type: Tab 0 ratings
1 star 2 stars 3 stars 4 stars 5 stars
comments

99 Tab

   
-------------------------------------------------------------------------------
			     99 - The Haunted (Intro)
-------------------------------------------------------------------------------
Tabbed by: HauntedOnE
Email: megaman_11@msn.com

Tuning: E B G D A D - Dropped D

e|---------------------------------------------------------------------------|
B|---------------------------------------------------------------------------|
G|---------------------------------------------------------------------------|
D|--3----6---5---0-----------------------------------------------------------|
A|--3----6---5---0-----------------------------------------------------------|
D|--3----6---5---0---000-000-000-000-000-000-000-000--000-000-000-000-000-000|

e|---------------------------------------------------------------------------|
B|---------------------------------------------------------------------------|
G|---------------------------------------------------------------------------|
D|--------------------------------3---6---5---0------------------------------|
A|--------------------------------3---6---5---0------------------------------|
D|-000-00-000-000-000-000-000-000-3---6---5---0---000-000-000-000-000-000-000|
[ Tab from: http://www.guitartabs.cc/tabs/h/haunted/99_tab.html ]
e|----------------------------------------------------------------------------|
B|----------------------------------------------------------------------------|
G|--------------------------------------------------|-------------------------|
D|----------------------------------------3---6---5-|*-2---6---5---3--2--3-3-*|
A|----------------------------------------3---6---5-|*-2---6---5---3--2--3-3-*|
D|-00-000-000-000-000-000-000-000-00-0----3---6---5-|--2---6---5---3--2--3-3--|
                                                            Repeat 3 times    
e|---------------------------------------------------------------------------|
B|---------------------------------------------------------------------------|
G|---------------------------------------------------------------------------|
D|--3-\\\\-0-----------------------------------------------------------------|
A|--3-\\\\-0-----------------------------------------------------------------|
D|--3-\\\\-0---------000-000-000-000-000-000-000-000--000-000-000-000-000-000|

e|---------------------------------------------------------------------------|
B|---------------------------------------------------------------------------|
G|---------------------------------------------------------------------------|
D|--------------------------------3---6---5---0------------------------------|
A|--------------------------------3---6---5---0------------------------------|
D|-000-00-000-000-000-000-000-000-3---6---5---0---000-000-000-000-000-000-000|

e|----------------------------------------------------------------------------|
B|----------------------------------------------------------------------------|
G|--------------------------------------------------|-------------------------|
D|----------------------------------------3---6---5-|*-2---6---5---3--2--3-3-*|
A|----------------------------------------3---6---5-|*-2---6---5---3--2--3-3-*|
D|-00-000-000-000-000-000-000-000-00-0----3---6---5-|--2---6---5---3--2--3-3--|
                                                            Repeat 3 times   

| /  slide up
| \  slide down
| h  hammer-on
| p  pull-off
| ~  vibrato
| +  harmonic
| x  Mute note
===============================================================================
Comments