Hatebreed - This Is Now Chords & Tabs

 

This Is Now Chords & Tabs

Hatebreed Chords & Tabs

Version: 4 Type: Tab 0 ratings
1 star 2 stars 3 stars 4 stars 5 stars
comments

This Is Now Tab

   
Artist: Hatebreed
Song: This Is Now
Album: Rise Of Brutality (2003)/Headbangers Ball Comp. (2003)
Written By: James Shanahan
Tuning: C F B (flat) E (Flat) G C

This requires some right hand endurance, this song will help build it up....this sound 
good to me
just play this Fast and Heavy, then it will sound perfect


Intro
Guitar One (distortion)
  _PM               _PM              _PM              ___________PM
---------------------------------------------------------------------|
---------------------------------------------------------------------|
---------------------------------------------------------------------|
---------------------------------------------------------------------|
5-----2---5-6--5--5-----2---3-5--3--3---2--5-6--5--5-2-2-2-2-2-2-2---|
3--0--0---3-4--3--3--0--0---1-3--1--1-0-0--3-4--3--3-0-0-0-0-0-0-0---|


  _PM               _PM              _PM              ___________PM
------------------------------------------------------------------------------------|
------------------------------------------------------------------------------------|
------------------------------------------------------------------------------------|
------------------------------------------------------------------------------------|
5-----2---5-6--5--5-----2---3-5--3--3---2--5-6--5--5-2-2-2-2-2-2-2--5-2-2-2---2-2-2-|
3--0--0---3-4--3--3--0--0---1-3--1--1-0-0--3-4--3--3-0-0-0-0-0-0-0--3-0-0-0---0-0-0-|


(Play Four Times)
  _PM               _PM              _PM              ___________PM
---------------------------------------------------------------------|
---------------------------------------------------------------------|
---------------------------------------------------------------------|
---------------------------------------------------------------------|
5-----2---5-6--5--5-----2---3-5--3--3---2--5-6--5--5-2-2-2-2-2-2-2---|
3--0--0---3-4--3--3--0--0---1-3--1--1-0-0--3-4--3--3-0-0-0-0-0-0-0---|

Verse
Guitars One And Two
---------------------------------------------------------------------------------|
---------------------------------------------------------------------------------|
---------------------------------------------------------------------------------|
------------------9--9-------------9--8--8-------------8--5--5--------5-5-5------|
2-------------2---7--7-------------7--6--6-------------6--3--3--------3-3-3--2---|
0-------------0--------------------------------------------------------------0---|


---------------------------------------------------------------------------------|
---------------------------------------------------------------------------------|
---------------------------------------------------------------------------------|
------------------9--9-------------9--8--8-------------8--5--5--------5-5-5------|
2-------------2---7--7-------------7--6--6-------------6--3--3--------3-3-3--2---|
0-------------0--------------------------------------------------------------0---|


---------------------------------------------------------------------------------|
---------------------------------------------------------------------------------|
---------------------------------------------------------------------------------|
------------------9--9-------------9--8--8-------------8--5--5--------5-5-5------|
2-------------2---7--7-------------7--6--6-------------6--3--3--------3-3-3--2---|
0-------------0--------------------------------------------------------------0---|


---------------------------------------------------------------------------------|
---------------------------------------------------------------------------------|
---------------------------------------------------------------------------------|
------------------9--9-------------9--8--8-------------8--5--5--------5-5-5------|
2-------------2---7--7-------------7--6--6-------------6--3--3--------3-3-3--2---|
0-------------0--------------------------------------------------------------0---|


---------------------------------------------------------------------------------|
---------------------------------------------------------------------------------|
---------------------------------------------------------------------------------|
------------------9--9-------------9--8--8-------------8--5--5--------5-5-5--5---|
2-------------2---7--7-------------7--6--6-------------6--3--3--------3-3-3--3---|
0-------------0--------------------------------------------------------------0---|


Chorus
   _PM                  _PM           _PM                   _________________PM
-------------------------------------------------------------------------------|
-------------------------------------------------------------------------------|
-------------------------------------------------------------------------------|
-------------------------------------------------------------------------------|
5-----2---5---6---5--5-----2----3--3-----2---5--6---5--5--2--2--2--2--2--2--2--|
3--0--0---3---4---3--3--0--0----1--1--0--0---3--4---3--3--0--0--0--0--0--0--0--|


   _PM                  _PM           _PM                   _________________PM
-------------------------------------------------------------------------------|
-------------------------------------------------------------------------------|
-------------------------------------------------------------------------------|
-------------------------------------------------------------------------------|
5-----2---5---6---5--5-----2----3--3-----2---5--6---5--5--2--2--2--2--2--2--2--|
3--0--0---3---4---3--3--0--0----1--1--0--0---3--4---3--3--0--0--0--0--0--0--0--|

[ Tab from: http://www.guitartabs.cc/tabs/h/hatebreed/this_is_now_tab_ver_4.html ]
   _PM                  _PM           _PM                   _________________PM
-------------------------------------------------------------------------------|
-------------------------------------------------------------------------------|
-------------------------------------------------------------------------------|
-------------------------------------------------------------------------------|
5-----2---5---6---5--5-----2----3--3-----2---5--6---5--5--2--2--2--2--2--2--2--|
3--0--0---3---4---3--3--0--0----1--1--0--0---3--4---3--3--0--0--0--0--0--0--0--|


   _PM                  _PM           _PM                   _________________PM
-------------------------------------------------------------------------------|
-------------------------------------------------------------------------------|
-------------------------------------------------------------------------------|
-------------------------------------------------------------------------------|
5-----2---5---6---5--5-----2----3--3-----2---5--6---5--5--2--2--2--2--2--2--2--|
3--0--0---3---4---3--3--0--0----1--1--0--0---3--4---3--3--0--0--0--0--0--0--0--|

Repeat Verse
Repeat Chorus

Interlude
Guitar One Only
       __PM      ___________PM        ______PM    __PM    ____________PM      _PM
------------------------------------------------------------------------------------|
------------------------------------------------------------------------------------|
------------------------------------------------------------------------------------|
------------------------------------------------------------------------------------|
2----------2------------------2--2-----------2--------2-----------------2--2-----2--|
0----0--0--0---0--0--0--0--0--0--0--0--0--0--0--0--0--0--0--0--0--0--0--0--0--0--0--|


       __PM      ___________PM        ______PM    __PM     __PM
------------------------------------------------------------------------------------|
------------------------------------------------------------------------------------|
------------------------------------------------------------------------------------|
------------------------------------------------------------------------------------|
2----------2------------------2--2-----------2--------2---------9--8---5--5--8--8---|
0----0--0--0---0--0--0--0--0--0--0--0--0--0--0--0--0--0--0--0---7--6---3--3--6--6---|


       __PM      ___________PM        ______PM    __PM    ____________PM      _PM
------------------------------------------------------------------------------------|
------------------------------------------------------------------------------------|
------------------------------------------------------------------------------------|
------------------------------------------------------------------------------------|
2----------2------------------2--2-----------2--------2-----------------2--2-----2--|
0----0--0--0---0--0--0--0--0--0--0--0--0--0--0--0--0--0--0--0--0--0--0--0--0--0--0--|


       __PM      ___________PM        ______PM    __PM     __PM
------------------------------------------------------------------------------------|
------------------------------------------------------------------------------------|
------------------------------------------------------------------------------------|
------------------------------------------------------------------------------------|
2----------2------------------2--2-----------2--------2---------9--8---5--5--8--8---|
0----0--0--0---0--0--0--0--0--0--0--0--0--0--0--0--0--0--0--0---7--6---3--3--6--6---|

Bridge
Guitars One & Two
       __PM      ___________PM        ______PM    __PM    ____________PM      _PM
------------------------------------------------------------------------------------|
------------------------------------------------------------------------------------|
------------------------------------------------------------------------------------|
------------------------------------------------------------------------------------|
2----------2------------------2--2-----------2--------2-----------------2--2-----2--|
0----0--0--0---0--0--0--0--0--0--0--0--0--0--0--0--0--0--0--0--0--0--0--0--0--0--0--|


       __PM      ___________PM        ______PM    __PM     __PM
------------------------------------------------------------------------------------|
------------------------------------------------------------------------------------|
------------------------------------------------------------------------------------|
------------------------------------------------------------------------------------|
2----------2------------------2--2-----------2--------2---------9--8---5--5--8--8---|
0----0--0--0---0--0--0--0--0--0--0--0--0--0--0--0--0--0--0--0---7--6---3--3--6--6---|


Solo (I Guess You'd Call It That)

Guitars One And Two Should Play The Bridge Riff Twice

Guitar Three
---------------------------------------------------------------------|
---------------------------------------------------------------------|
9---------------9------------9/--10-------7---------------7----------|
x---------------x------------x/--x--------x---------------x----------|
7---------------7------------7/--8--------5---------------5----------|
---------------------------------------------------------------------|


---------------------------------------------------------------------|
---------------------------------------------------------------------|
9---------------9------------9/--10---6------------------------------|
x---------------x------------x/--x----x------------------------------|
7---------------7------------7/--8----4------------------------------|
---------------------------------------------------------------------|
                                                  ________stop playing here at "cause 
is now"

Repeat Chorus

Outro/End Of Chorus

Guitars One And Two

   _PM                  _PM           _PM                   _________________PM
-------------------------------------------------------------------------------|
-------------------------------------------------------------------------------|
-------------------------------------------------------------------------------|
-------------------------------------------------------------------------------|
5-----2---5---6---5--5-----2----3--3-----2---5--6---5--5--2--2--2-----2--2--2--|
3--0--0---3---4---3--3--0--0----1--1--0--0---3--4---3--3--0--0--0-----0--0--0--|

Thats It!!!
Comments