Hatebreed - This Is Now Chords & Tabs

 

This Is Now Chords & Tabs

Hatebreed Chords & Tabs

Version: 3 Type: Tab 0 ratings
1 star 2 stars 3 stars 4 stars 5 stars
comments

This Is Now Tab

   
Hatebreed - This is now

Drop C

* = pm
------------------------------------------------

Intro:

c|----------------------------------------------|
g|----------------------------------------------|
e|----------------------------------------------|
b|-3-0-0-3-4-3-0-0-1-3-1-0-0-3-4-3-0000000------|
f|-3-0-0-3-4-3-0-0-1-3-1-0-0-3-4-3-0000000------|
C|-3-0-0-3-4-3-0-0-1-3-1-0-0-3-4-3-0000000------|
     *         *         *         *******

verse:

c|------------------------|
g|------------------------|
e|------------------------|  (don't hammer the "0" hard, just soft)
b|------------------------|
f|-----5------4-------1---|
C|-0----------------------|

interlude:
[ Tab from: http://www.guitartabs.cc/tabs/h/hatebreed/this_is_now_tab_ver_3.html ]
c|------------------------------|                     |-----------|
g|------------------------------|                     |-----------|
e|------------------------------|                     |-----------|
b|-0-00-0-00000-0-000-0-00-0-00-|   continue then --> |-7-6-3-5---|
f|-0-00-0-00000-0-000-0-00-0-00-|                     |-7-6-3-5---|
C|-0-00-0-00000-0-000-0-00-0-00-|                     |-7-6-3-5---|
     **   *****   ***   **   **

c|-----------------------------------|
g|-----------------------------------|
e|-----------------------------------|
b|-------------------------7-6-3-5---|
f|-5---5-6-3----5---5-6-2--7-6-3-5---|
C|-------------------------7-6-3-5---|

c|----------------------------------------------|               c|----------|
g|----------------------------------------------|               g|----------|
e|----------------------------------------------|               e|----------|
b|-3-0-0-3-4-3-0-0-1-3-1-0-0-3-4-3-0000000------| last time =   b|-000-000--|
f|-3-0-0-3-4-3-0-0-1-3-1-0-0-3-4-3-0000000------|               f|-000-000--|
C|-3-0-0-3-4-3-0-0-1-3-1-0-0-3-4-3-0000000------|               C|-000-000--|
     *         *         *         *******                         *** ***


* Another great song of this fucking awesom HARDCORE Band! Check it out! *
Comments