Hatebreed - Satisfaction Is The Death Of Desire Chords & Tabs

 

Satisfaction Is The Death Of Desire Chords & Tabs

Hatebreed Chords & Tabs

Version: 1 Type: Tab 0 ratings
1 star 2 stars 3 stars 4 stars 5 stars
comments

Satisfaction Is The Death Of Desire Tab

   
================================================================================
        Artist : Hatebreed
         Album : Satisfaction is the death of Desire
Transcribed by : By DimeBolt (dime_bolt@email.com)
================================================================================

Note: These are all done by ear so there will be some mistakes, but I think it is
      pretty accurate. In every song there is only like three riffs, so instead 
      of having 14 tiny files I just put them in one medium sized one. Enjoy

Legend
------

 h  = hammer-on
 p  = pull-off
 /  = slide up
 \  = slide down
 ~  = vibrato
 x\ = pick slide


Tune down 2 whole steps (C,F,Bb,Eb,G,C)


Empty Promises
==============

   Intro              "You come to me..."
1||-----------------||-----------------|-----------------|-----------------|---------||
2||-----------------||-----------------|-----------------|-----------------|---------||
3||-----------------||-----------------|-----------------|-----------------|---------||
4||-----------------||-----------------|-----------------|-----------------|---------||
5||-----5-------3---||-2---2---2---3-5-|---5---5---3-2---|-2---2---3-5---6-|---6---3-||
6||-00003---00001---||-0---0---0---1-3-|---3---3---1-0---|-0---0---1-3---4-|---4---1-||

              "How can you save me..."
1||---------||-----------------|-----------------||
2||---------||-----------------|-----------------||
3||-----9---||-----------------|-----------------||
4||-----9---||-----------------|-----------------||
5||-2---7---||-2---5-8---2-5-8-|-2--5--8-7--5--7-||
6||-0---0---||-0---3-6---0-3-6-|-0--3--6-5--3--5-||



Burn The Lies
=============

   "They're so persuasive..."
1||-----------------|-----------------||
2||-----------------|-----------------||
3||-----------------|-----------------||
4||-----------------|-----------------||
5||-3-2---2-5/6---6-|-7-6-----3/5---5-||
6||-1-0---0-3/4---4-|-5-4---0-1/3---3-||

   "All that I have for you..."
1||------------------|------------------|------------------|-----------------||
2||------------------|------------------|------------------|-----------------||
3||------------------|------------------|------------------|-----------------||
4||------------------|------------------|------------------|-----------------||
5||---3---3/8--7--5--|---3---3/8--7--5--|---3---3/8--7--5--|-2-------2-------||
6||-1-1---1/6--5--3--|-1-1---1/6--5--3--|-1-1---1/6--5--3--|-0-------0-------||

   Repeat bars where necessary "Filled with hate"
1||-----------------|------------------|-----------------|------------------||
2||-----------------|------------------|-----------------|------------------||
3||-----------------|------------------|-----------------|------------------||
4||-----------------|------------------|-----------------|------------------||
5||-2-2-2---3-2-2---|-2-2-2---5--4--3--|-2-2-2---3-2-2---|-2-2-2---5--7--8--||
6||-0-0-0---1-0-0---|-0-0-0---3--2--1--|-0-0-0---1-0-0---|-0-0-0---3--5--6--||


1||-----------------|------------------|-----------------|------------------||---------||
2||-----------------|------------------|-----------------|------------------||---------||
3||-----------------|------------------|-----------------|------------------||---------||
4||-----------------|------------------|-----------------|------------------||---------||
5||---------3-2-2---|---------5--4--3--|---------3-2-2---|---------5--7--8--||-----2---||
6||-00000---1-0-0---|-00000---3--2--1--|-00000---1-0-0---|-00000---3--5--6--||-00000---||



Before Dishonor
===============

   Intro                    "What makes you think..."
1||-----------------||----||-----------------|-----------------|-----------------|
2||-----------------||----||-----------------|-----------------|-----------------|
3||-----------------||----||-----------------|-----------------|-----------------|
4||-----------------||----||-----------------|-----------------|-----------------|
5||-2-2-3-5-6-5-3-5-||-2--||-2---------------|-5-----8-----7\5-|-2---------------|
6||-0-0-1-3-4-3-1-3-||-0--||-0---0-0-0-0-0-0-|-3-0-0-6-0-0-5\3-|-0---0-0-0-0-0-0-|

                       2nd Guitar
1||------------------||-----|-----|-----|------|-----|-----|-----|-----||
2||------------------||-----|-----|-----|------|-----|-----|-----|-----||
3||------------------||-9---|-7---|-9---|-10---|-9---|-7---|-5---|-7---||
4||-7-----10-----9---||-----|-----|-----|------|-----|-----|-----|-----||
5||-5------8-----7---||-7---|-5---|-7---|--8---|-7---|-5---|-3---|-5---||
6||---0-0----0-0-----||-----|-----|-----|------|-----|-----|-----|-----||

   "I will not be a victim..."
1||-----------------|-----------------|-----------------|-----------------||
2||-----------------|-----------------|-----------------|-----------------||
3||-----------------|-----------------|-----------------|-----------------||
4||-----------------|-----------------|-----------------|-----------------||
5||-2---2---3---2---|-2---3---2---2---|-3---2---2---3---|-2-2-3-5-6-5-3-5-||
6||-0---0---1---0---|-0---1---0---0---|-1---0---0---1---|-0-0-1-3-4-3-1-3-||

   "I'll choose my own destiny..."
1||-------|-------|-------|-------|-------|-------|-------|-------------------------||
2||-------|-------|-------|-------|-------|-------|-------|-------------------------||
3||-------|-------|-------|-------|-------|-------|-------|-------------------------||
4||-------|-------|-7-----|-10----|-------|-------|-7-----|-12-12-12-12-12-12-12-12-||
5||-2-----|-------|-5-----|--8----|-2-----|-------|-5-----|-10-10-10-10-10-10-10-10-||
6||-0-----|-------|-------|-------|-0-----|-------|-------|-------------------------||

   "I won't live in denial..."                      "What i have in my heart..."
1||-----------------|------------------||---------||-----------------||------------------||
2||-----------------|------------------||---------||-----------------||------------------||
3||-----------------|------------------||-----9---||-----------------||------------------||
4||-----------------|/10\9---9---------||-----9---||-----------------||------------------||
5||---2-------2-----|/-8\7---7-7\5-5---||-2---7---||-2-2-3-5-6-5-3-5-||------------------||
6||-0-0---0-0-0---0-|----------5\3-3---||-0---0---||-0-0-1-3-4-3-1-3-||-0000113344331133-||



Puritan
=======

   "Bastard cries..."                   "In this world full of fear..."
1||-----------------|-----------------||-----------------|------------------||
2||-----------------|-----------------||-----------------|------------------||
3||-----------------|-----------------||-----------------|------------------||
4||-----------------|-----------------||-----------------|------------------||
5||-3-2---5---5---3-|-2---------------||-3-2---5---5---3-|-2----------------||
6||-1-0-0-3-0-3-0-1-|-0---------------||-1-0-0-3-0-3-0-1-|-0-0-00000-0-0000-||

   Bass and guitar lick                 "Salvation..."
1||-----------------|-----------------||-----------------|-----------------|
2||-----------------|-----------------||-----------------|-----------------|
3||-----------------|-----------------||-----------------|-----------------|
4||-----------------|-------------5---||-----------------|-----------------|
5||-5-3-2-5-3-2-5-3-|-2-5-3-2-5-6-3---||-4/5-2---2---2-2-|-2---2---2---2-2-|
6||-3-1-0-3-1-0-3-1-|-0-3-1-0-3-4-----||-2/3-0---0---0-0-|-0---0---0---0-0-|

                                        "I will not bow down..."
1||-----------------|-----------------||-----------------|------------------|
2||-----------------|-----------------||-----------------|------------------|
3||-----------------|-----------------||-----------------|------------------|
4||-----------------|-----------------||-----------------|------------------|
5||-4/5-2---2---2-2-|-2---2-----5-----||-6-------3-------|---------2--------|
6||-2/3-0---0---0-0-|-0---0---3-3-----||----3--4----4--3-|-1--3--4----4--3--|


1||------------------|-----------------||
2||------------------|-----------------||
3||------------------|-----------------||
4||------------------|-----------------||
5||------------------|-----------------||
6||-0---00000---0000-|-0---00000---0---||



Concieved Through An Act Of Violence
====================================

                      "I am the hatred taken..."
1||-----------------||-----------------|-----------------||
2||-----------------||-----------------|-----------------||
3||-----------------||-----------------|-----------------||
4||-----------------||-----------------|-----------------||
5||-5-5-5-6---7-----||-2-2-2----2----2-|-2-2-2---2-2-2---||
6||-3-3-3-4---5-----||-0-0-0----0----0-|-0-0-0---0-0-0---||

   "Forever..."
1||-----------------|-----------------|-----------------|-----------------||
2||-----------------|-----------------|-----------------|-----------------||
3||-----------------|-----------------|-----------------|-----------------||
4||-----------------|-----------------|-----------------|-----------------||
5||-5-5---5-2-2---2-|-5-5---5-2-2---2-|-7-7---7-8-7---5-|-6-6---6-6-6---6-||
6||-3-3---3-0-0---0-|-3-3---3-0-0---0-|-5-5---5-6-5---3-|-4-4---4-4-4---4-||

   "Concieved..."
1||-----------------|-----------------||
2||-----------------|-----------------||
3||-----------------|-----------------||
4||-----------------|-----------------||
5||-7-7---7-8-7---5-|-6-6---6-6-6---6-||
6||-5-5---5-6-5---3-|-4-4---4-4-4---4-||



Afflicted Past
==============

                                         "Hatred evokes the memories..."
1||-----------------|------------------||-----------------|------------------||
2||-----------------|------------------||-----------------|------------------||
3||-----------------|------------------||-----------------|------------------||
4||-----------------|-5-------------7--||-----------------|-5-------------7--||
5||-2---------------|-3-------7--8--5--||---2-------2-----|-3-------7--8--5--||
6||-0---------------|---------5--6-----||-0-0---0-0-0---0-|---------5--6-----||

   "How can you face the world..."
1||-----------------|-----------------|------------------|------------------||
2||-----------------|-----------------|------------------|------------------||
3||-----------------|-----------------|------------------|------------------||
4||-----------------|-----------------|-4\3--------------|------------------||
5||---3-------3-----|---3-------3-----|-2\1--------------|-6\5--------------||
6||-1-1---1-1-1---1-|-1-1---1-1-1---1-|------------------|-4\3--------------||

   "No escape..."
1||-----------------|-----------------|-----------------|-----------------||
2||-----------------|-----------------|-----------------|-----------------||
3||-----------------|-----------------|-----------------|-----------------||
4||-----------------|-----------------|-----------------|-----------------||
5||-5-6-8---2---2---|-2---3-2-2---2---|-2---2---2---2---|-2---3-2-2---2---||
6||-3-4-6---0---0---|-0---1-0-0---0---|-0---0---0---0---|-0---1-0-0---0---||



Prepare For War
===============

          Intro                            "Drifting by heavens..."
1||-----||---------------|---------------||-----------------|-----------------||
2||-----||---------------|---------------||-----------------|-----------------||
3||-----||---------------|---------------||-----------------|-----------------||
4||-----||---------------|---------------||-----------------|-----------------||
5||-3---||-2-------------|-----------3---||-2-----4/5-----5/|/6-----7---2-3---||
6||-1---||-0-------------|-----------1---||-0-0-0-2/3-0-0-3/|/4-0-0-5-0-0-1---||

   "Now..."             "There is no fear..."
1||---------|---------||-----------------|-----------------||
2||---------|---------||-----------------|-----------------||
3||---------|---------||-----------------|-----------------||
4||---------|---------||-----------------|-----------------||
5||-2-------|-2-------||-2---4---5---4---|-2---4---5---7---||
6||-0-------|-0-------||-0---2---3---2---|-0---2---3---5---||



Not One Truth
=============

              "Living as we rot..."           "There is no turning back..."
1||---------||--------------|---------------||-----------------|-----------------||
2||---------||--------------|---------------||-----------------|-----------------||
3||---------||--------------|---------------||-----------------|-----------------||
4||---------||--------------|---------------||-----------------|-----------------||
5||-5-4-6-5-||-2------------|-------5-3-6-5-||---2-------2-----|---2-----5-3-6-5-||
6||-3-1-4-3-||-0------------|-------3-1-4-3-||-0-0---0-0-0---0-|-0-0---0-3-1-4-3-||
[ Tab from: http://www.guitartabs.cc/tabs/h/hatebreed/satisfaction_is_the_death_of_desire_tab.html ]
   "There is not one truth..."
1||-----------------|-----------------|-----------------|-----------------||
2||-----------------|-----------------|-----------------|-----------------||
3||-----------------|-----------------|-----------------|-----------------||
4||-----------------|-----------------|-----------------|-----------------||
5||-2---2---2-----2-|---2-2---2-----2-|-2-2-2---2-----2-|---2-2-2-5\3-6\5-||
6||-0---0---0-----0-|---0-0---0-----0-|-0-0-0---0-----0-|---0-0-0-3\1-4\3-||

   "Our eyes crystal clear..."
1||-----------------|-----------------|-----------------|-----------------||
2||-----------------|-----------------|-----------------|-----------------||
3||-----------------|-----------------|-----------------|-----------------||
4||-3---3-----------|-----------------|-3---3-----------|-----------------||
5||-1---1---3-3-3-2-|---2-2-2-2-2-2-2-|-1---1---3-3-3-2-|---2-2-2-5\3-6\5-||
6||---------1-1-1-0-|---0-0-0-0-0-0-0-|---------1-1-1-0-|---0-0-0-3\1-4\3-||



Betrayed By Life
================

   "In a cold, unforgiving world..."
1||---------------|---------------||--------------|---------------|------||
2||---------------|---------------||--------------|---------------|------||
3||---------------|---------------||--------------|---------------|------||
4||---------------|---------------||--------------|---------------|------||
5||-3-------------|-6------2------||-3------------|-6------3------|-2----||
6||-1-------------|-4------0------||-1------------|-4------1------|-0----||

                                        "No one, is exempt..."
1||-----------------|-----------------||-----------------|-----------------||
2||-----------------|-----------------||-----------------|-----------------||
3||-----------------|-----------------||-----------------|-----------------||
4||-3---------------|-----------------||-----------------|---------3-------||
5||-1---2---5-4-2---|-5-4-2---5-4-2---||-3-2-------3---2-|-3-2---2-1-------||
6||-----0---3-2-0---|-3-2-0---3-2-0---||-1-0-------1---0-|-1-0---0---------||



Mark My Words
=============

   "I was so blind..."
1||-----------------|-----------------|-----------------|-----------------||
2||-----------------|-----------------|-----------------|-----------------||
3||-----------------|-----------------|-----------------|-----------------||
4||-9---------------|-7------10-------|-9---------------|-----------------||
5||-7---------------|-5-------8-------|-7---------------|-5-------7-------||
6||-----------------|-----------------|-----------------|-3-------5-------||

   Chorus "Consider my suffering..."                     *Slower ending last time
1||-----------------|----------------|------------------|-----------------||
2||-----------------|----------------|------------------|-----------------||
3||-----------------|----------------|------------------|-----------------||
4||-----------------|----------------|------------------|-----------------||
5||-2---------------|-5--------------|------------------|-8--7--5---------||
6||-0---------------|-3--------------|-0000000000000000-|-6--5--3---------||

   Slower Ending                Bass and Guitar lick "Mark My Words"
1||------------------|--------||-----------------|-----------------||
2||------------------|--------||-----------------|-----------------||
3||------------------|--------||-----------------|-----------------||
4||------------------|--------||-----------------|-----------------||
5||-8--7-----5---5---|-2------||-3---2---5---2---|-8---7---5---7---||
6||-6--5--0--3---3---|-0------||-1---0---3---0---|-6---5---3---5---||



Last Breath
===========

   "All the prayers in the world..."    "Taken from this earth..."
1||-----------------|-----------------||-----------------|-----------------|
2||-----------------|-----------------||-----------------|-----------------|
3||-----------------|-----------------||-----------------|-----------------|
4||-----------------|-----------------||-----------------|-----------------|
5||-2-----6-5---2---|-6---5---2-5-----||-3-2-2-5-2-2-2-2-|-3-2-2-5-2-2-2-2-|
6||-0-----4-3---0---|-4---3---0-3-----||-1-0-0-3-0-0-0-0-|-1-0-0-3-0-0-0-0-|

                                                            Ending
1||-----------------|-------------------------------------||-----------------|----||
2||-----------------|-------------------------------------||-----------------|----||
3||-----------------|-------------------------------------||-----------------|----||
4||-----------------|-------------------------------------||-----------------|----||
5||-3-2-2-5-2-2-2-2-|-10-10-10-10-8-8-8-8-5-5-5-5-8-8-8-8-||-6---5---2-5---5-|-2--||
6||-1-0-0-3-0-0-0-0-|-------------------------------------||-4---3---0-3---3-|-0--||



Burial For The Living
=====================

   Bass and Guitar intro
1||-----------------|-----------------|-----------------|-----------------||
2||-----------------|-----------------|-----------------|-----------------||
3||-----------------|-----------------|-----------------|-----------------||
4||-----------------|-----------------|-----------------|-3-2---2---------||
5||-3-2-----3-2-----|-1-1---1-1-1---1-|-3-2-----3-2-----|---------1-1-2---||
6||-1-0-----1-0-----|-----------------|-1-0-----1-0-----|-----------------||

   "No one can redeem themselves..."
1||-----------------|-----------------|-----------------|------------------||
2||-----------------|-----------------|-----------------|------------------||
3||-----------------|-----------------|-----------------|------------------||
4||-----------------|-3-3---3-3-3---3-|-----------------|-10-9---9---------||
5||-3-2---2-3-2---2-|-1-1---1-1-1---1-|-3-2---2-3-2---2-|--8-7---7-8-8-9---||
6||-1-0---0-1-0---0-|-----------------|-1-0---0-1-0---0-|----------6-6-7---||

   "Burial for the living..."
1||-----------------|-----------------|-----------------|------------------||-----||
2||-----------------|-----------------|-----------------|------------------||-----||
3||-----------------|-----------------|-----------------|------------------||-----||
4||-----------------|-----------------|-----------------|------------------||-----||
5||-3-2-------------|-3-2-------------|-5-3-------------|-6-------3--3--3--||-2---||
6||-1-0-------------|-1-0-------------|-3-1-------------|-4-------1--1--1--||-0---||

                      "Vengence..."
1||-----------------||-----------------|-----------------||-----------------||
2||-----------------||-----------------|-----------------||-----------------||
3||-----------------||-----------------|-----------------||-----------------||
4||-----------------||-----------------|-----------------||-----------------||
5||-3-6-5---2-5-4---||-3---2---2-2-2---|-3---2-----2-2---||---2-2-----2-2---||
6||-1-4-3---0-3-2---||-1---0---0-0-0---|-1---0-----0-0---||---0-0-----0-0---||

   Alternate ending
1||-----------------||
2||-----------------||
3||-----------------||
4||-----------------||
5||-3-6-5-----------||
6||-1-4-3---0000003-||



Worlds Apart
============

   Bass intro
1||-----------------|-----------------|-----------------|-----------------|
2||-----------------|-----------------|-----------------|-----------------|
3||-----------------|-----------------|-----------------|-----------------|
4||-----------------|-----------------|-----------------|-----------------|
5||-----------------|-----------7---7-|-8-8---8-8-8---8-|-----------------|
6||-0-0---0-0-0---0-|-0-0---0-6-------|-----------------|-7-6---6-6-6---6-|


1||-------------------|-----------------|-----------------|-----------------------||
2||-------------------|-----------------|-----------------|-----------------------||
3||-------------------|-----------------|-----------------|-----------------------||
4||-------------------|-----------------|-----------------|-----------------------||
5||-(/7~)-------------|-----------7---7-|-8-8---8-8-8---8-|-10-10---10-10-10---10-||
6||---0-0---0-0-0---0-|-0-0---0-6-------|-----------------|-----------------------||

              "Conditioned to feel nothing..."
1||---------||-----------------|-----------------|-----------------------|-----------------|
2||---------||-----------------|-----------------|-----------------------|-----------------|
3||---------||-----------------|-----------------|-----------------------|-----------------|
4||---------||-----------------|-----------9---9-|-10-10---10-10-10---10-|-----------------|
5||-2--2-x\-||---2-------2-----|---2-----8-7---7-|--8--8----8--8--8----8-|-9-8---8-8-8---8-|
6||-0--0-x\-||-0-0---0-0-0---0-|-0-0---0-6-------|-----------------------|-7-6---6-6-6---6-|


1||-----------------|-----------------|-----------------------|-----------------------||
2||-----------------|-----------------|-----------------------|-----------------------||
3||-----------------|-----------------|-----------------------|-----------------------||
4||-----------------|-----------9---9-|-10-10---10-10-10---10-|-12-12---12-12-12---12-||
5||---2-------2-----|---2-----8-7---7-|--8--8----8--8--8----8-|-10-10---10-10-10---10-||
6||-0-0---0-0-0---0-|-0-0---0-6-------|-----------------------|-----------------------||

   "In your uncaring life..."
1||-----------------|-----------------|-----------------|-----------------||
2||-----------------|-----------------|-----------------|-----------------||
3||-----------------|-----------------|-----------------|-----------------||
4||-5---------------|-4---------------|-----------------|-----------------||
5||-3---------------|-2-------5-------|-3p2-----3p2-----|-3p2-----3p2-----||
6||-----------------|---------3-------|-1p0-----1p0-----|-1p0-----1p0-----||

                      Not sure
1||-----------------||-----------------|-----------------||
2||-----------------||-----------------|-----------------||
3||-----------------||-----------------|-----------------||
4||-----------------||-----------------|-----------------||
5||-3p2-----3p2-----||-5-------3-------|-5-------3-------||
6||-1p0-0-0-1p0-0-0-||---5-6-5---5-6-3-|---5-6-5---5-6-3-||


1||-----------------|-----------------|-----------------|-----------------||
2||-----------------|-----------------|-----------------|-----------------||
3||-----------------|-----------------|-----------------|-----------------||
4||-----------------|-----------------|-----------------|-----------------||
5||-2---2---2---3-5-|-2---2---2---3-5-|-2---2---2---3-5-|---------3-------||
6||-0---0---0---1-3-|-0---0---0---1-3-|-0---0---0---1-3-|-3-5-6-5---5-6-3-||


Driven By Suffering
===================

  Intro and verse
1||-----------------|------------------|----------------|------------------||
2||-----------------|------------------|----------------|------------------||
3||-----------------|------------------|----------------|------------------||
4||---------5--6--8-|-9----------------|-------------10-|-9----------------||
5||-8--7--8-3--4--6-|-7----------------|---------8-7--8-|-7----------------||
6||-6--5--6---------|---00000000000000-|-000000006-5----|---00000000000000-||

   "All of my life..."
1||-----------------|-----------------|-----------------|-----------------||
2||-----------------|-----------------|-----------------|-----------------||
3||-----------------|-----------------|-----------------|-----------------||
4||-2---------------|-2---------------|-2---------------|---------5--6--8-||
5||-2------2--2---2-|-2------2--2---2-|-2------2--2---2-|-8--7--8-3--4--6-||
6||-0------0--0---0-|-0------0--0---0-|-0------0--0---0-|-6--5--6---------||

   "Every single choice I must make..."
1||-----------------|-----------------|-----------------|-----------------||
2||-----------------|-----------------|-----------------|-----------------||
3||-----------------|-----------------|-----------------|-----------------||
4||-2---------------|-2---------------|-2---------------|---------5--6--8-||
5||-2------2--2-----|-2------2--2--2--|-2------2--2-----|-8--7--8-3--4--6-||
6||-0------0--0-----|-0------0--0--0--|-0------0--0-----|-6--5--6---------||

  Heavy bit
1||-----------------|-----------------|-----------------|-----------------|
2||-----------------|-----------------|-----------------|-----------------|
3||-----------------|-----------------|-----------------|-----------------|
4||-----------------|-----------------|-----------------|-----------------|
5||-3-3-2---3---2---|-3---4---3---2---|-3-3-2---3---2---|-3---8---7---4---|
6||-1-1-0---1---0---|-1---2---1---0---|-1-1-0---1---0---|-1---6---5---2---|

1||-----------------|-----------------|-----------------|-----------------||
2||-----------------|-----------------|-----------------|-----------------||
3||-----------------|-----------------|-----------------|-----------------||
4||-----------------|-----------------|-----------------|-----------------||
5||-3-3-2---3---2---|-3---4---3---2---|-3-3-2---3---2---|-3-3-8---7---4---||
6||-1-1-0---1---0---|-1---2---1---0---|-1-1-0---1---0---|-1-1-6---5---2---||
Comments