Hatebreed - Proven Chords & Tabs

 

Proven Chords & Tabs

Hatebreed Chords & Tabs

Version: 3 Type: Tab 0 ratings
1 star 2 stars 3 stars 4 stars 5 stars
comments

Proven Tab

   
Proven by Hatebreed
Tabbed by Jason

Tuned to Drop C (C-G-C-F-A-D)

|-------------|
|-------------|
|-------------|
|-0-----------|
|-0---------0-|
|-0---------0-|

|-------------------------------|
|-------------------------------|
|-------------------------------|
|-0-0--0-3-0--0-0-0- 0-3-0-7-10-|
|-0-0--0-3-0--0-0-0--0-3-0-5-8--|
|-0-0--0-3-0--0-0-0--0-3-0------|
[ Tab from: http://www.guitartabs.cc/tabs/h/hatebreed/proven_tab_ver_3.html ]
|-------------------------------------------------------------|
|-------------------------------------------------------------|
|-------------------------------------------------------------|
|---0----3-0------0----3-0-7-10-3-0----3-0------0----3-0-7-10-|
|-0-0--0-3-0--0-0-0--0-3-0-5-8--3-0--0-3-0--0-0-0--0-3-0-5-8--|
|-0-0--0-3-0--0-0-0--0-3-0------3-0--0-3-0--0-0-0--0-3-0------|
pm.    .      . .    .               .      . .    .

|-----------------------|-----------------|-----------------|
|-----------------------|-----play x3-----|-----------------|
|-----------------------|-----------------|-----------------|
|-0---------------------|-----------------|-----------------|
|-0----4----0----5-4--1-|---------5-8-----|---------5-8-9-6-|
|-0----6----2----7-6--1-|-000-000-----0-0-|-000-000---------|
Comments