Hatebreed - Proven Chords & Tabs

 

Proven Chords & Tabs

Hatebreed Chords & Tabs

Version: 2 Type: Tab 0 ratings
1 star 2 stars 3 stars 4 stars 5 stars
comments

Proven Tab

artist:    HATEBREED
song:      PROVEN
cd:        PERSEVERANCE
tabbed by: OZRIC
tuning:    drop "D"

x:         palm mute

e|-------------------------| X7 THEN PICK SLIDE
B|-------------------------|
G|-------------------------|
D|-0-----------------------|
A|-0-----------------------|
D|-0-----------------------|

e|---------------------------------------------|----------------------------------------| X2
B|---------------------------------------------|----------------------------------------|
G|-----------------------------------------4---|----------------------------------------|
D|-1-0--(0)--3-0--(0)--1-0--(0)--1/4--4-4--4---|-1-0--(0)--3-0--(0)--1-0--(0)--1/4--4-4-|
A|-1-0--(0)--3-0--(0)--1-0--(0)--1/4--4-4----4-|-1-0--(0)--3-0--(0)--1-0--(0)--1/4--4-4-|
D|-1-0--(0)--3-0--(0)--1-0--(0)--1/4--4-4----4-|-1-0--(0)--3-0--(0)--1-0--(0)--1/4--4-4-|
[ Tab from: http://www.guitartabs.cc/tabs/h/hatebreed/proven_tab_ver_2.html ]
e|--------------------------------------------------------------------------------------| X8
B|--------------------------------------------------------------------------------------|
G|-----------------------------------------4---|----------------------------------------|
D|-1-0--(0)--3-0--(0)--1-0--(0)--1/4--4-4--4---|-1-0--(0)--3-0--(0)--1-0--(0)--1/4--4-4-|
A|-1-0--(0)--3-0--(0)--1-0--(0)--1/4--4-4----4-|-1-0--(0)--3-0--(0)--1-0--(0)--1/4--4-4-|
D|-1-0--(0)--3-0--(0)--1-0--(0)--1/4--4-4----4-|-1-0--(0)--3-0--(0)--1-0--(0)--1/4--4-4-|
   x         x         x                         x         x         x      

e|-------------------------------| X4  (a little slower each time)
B|-------------------------------|
G|-------------------------------|
D|-0--4--1--6-5-4--1-------------|
A|-0--4--1--6-5-4--1-------------|
D|-0--4--1--6-5-4--1-------------|

pause 10 seconds then.........PROVEN!

e|----------------------------------------------------------------------------------------------------| X6
B|----------------------------------------------------------------------------------------------------|
G|----------------------------------------------------------------------------------------------------|
D|-0-0-0--0-0-0--------0-0--0-0-0--0-0-0--------0-0--0-0-0--0-0-0--------0-0--0-0-0--0-0-0------------|
A|-0-0-0--0-0-0--5--8--0-0--0-0-0--0-0-0--5--8--0-0--0-0-0--0-0-0--5--8--0-0--0-0-0--0-0-0--5--8--9--6|
D|-0-0-0--0-0-0--------0-0--0-0-0--0-0-0--------0-0--0-0-0--0-0-0--------0-0--0-0-0--0-0-0------------|
   x x x  x x x        x x  x x x  x x x        x x  x x x  x x x        x x  x x x  x x x

(last time ^) 
e|------------------------------| 
B|------------------------------|
G|------------------------------|
D|-0-0-0--0-0-0-----------------|
A|-0-0-0--0-0-0-----------------|
D|-0-0-0--0-0-0-----------------|
   x x x  x x x


Comments