Hatebreed - Not One Truth Chords & Tabs

 

Not One Truth Chords & Tabs

Hatebreed Chords & Tabs

Version: 1 Type: Tab 0 ratings
1 star 2 stars 3 stars 4 stars 5 stars
comments

Not One Truth Tab

hatebreed-not one truth

HATEBREED RULES!

 "Living as we rot..."           "There is no turning back..."
1||---------||--------------|---------------||-----------------|-----------------||
2||---------||--------------|---------------||-----------------|-----------------||
3||---------||--------------|---------------||-----------------|-----------------||
4||---------||--------------|---------------||-----------------|-----------------||
5||-5-4-6-5-||-2------------|-------5-3-6-5-||---2-------2-----|---2-----5-3-6-5-||
6||-3-1-4-3-||-0------------|-------3-1-4-3-||-0-0---0-0-0---0-|-0-0---0-3-1-4-3-||
[ Tab from: http://www.guitartabs.cc/tabs/h/hatebreed/not_one_truth_tab.html ]
   "There is not one truth..."
1||-----------------|-----------------|-----------------|-----------------||
2||-----------------|-----------------|-----------------|-----------------||
3||-----------------|-----------------|-----------------|-----------------||
4||-----------------|-----------------|-----------------|-----------------||
5||-2---2---2-----2-|---2-2---2-----2-|-2-2-2---2-----2-|---2-2-2-5\3-6\5-||
6||-0---0---0-----0-|---0-0---0-----0-|-0-0-0---0-----0-|---0-0-0-3\1-4\3-||

   "Our eyes crystal clear..."
1||-----------------|-----------------|-----------------|-----------------||
2||-----------------|-----------------|-----------------|-----------------||
3||-----------------|-----------------|-----------------|-----------------||
4||-3---3-----------|-----------------|-3---3-----------|-----------------||
5||-1---1---3-3-3-2-|---2-2-2-2-2-2-2-|-1---1---3-3-3-2-|---2-2-2-5\3-6\5-||
6||---------1-1-1-0-|---0-0-0-0-0-0-0-|---------1-1-1-0-|---0-0-0-3\1-4\3-||
Comments