Hatebreed - Live For This Chords & Tabs

 

Live For This Chords & Tabs

Hatebreed Chords & Tabs

Version: 4 Type: Tab 0 ratings
1 star 2 stars 3 stars 4 stars 5 stars
comments

Live For This Tab

Hatebreed - Live for this

Tuning: drop C

* = pm


Main Riff:
 
d|------------------------------||---------------------------------|
a|------------------------------||---------------------------------|
f|------------------------------||---------------------------------|
c|--7--5--8-------7-----7-------||-5-5-5-5-5-5-5-5-8-8-8-8-8-8-----|
g|--5--3--6-------5-----5-------||-3-3-3-3-3-3-3-3-6-6-6-6-6-6-----|
C|-----------0-0-0--0-0-0--0-0-0||---------------------------------|
             * * *  * * *  * * *

chorus:
[ Tab from: http://www.guitartabs.cc/tabs/h/hatebreed/live_for_this_tab_ver_4.html ]
d|----------------------------------------|
a|----------------------------------------|
f|----------------------------------------|
c|-0---3-5-7--3-7-6--3-7-3-00-3-00-5-0----|
g|-0---3-5-7--3-7-6--3-7-3-00-3-00-5-0----|
C|-0---3-5-7--3-7-6--3-7-3-00-3-00-5-0----|
       * *      * *  * *   **   ** 

outro

d|-----------------------------------|
a|-----------------------------------|
f|-----------------------------------|
c|-0-----0-----0--55555555-8888888-0-|  2x
g|-0-----0-----0--33333333-6666666-0-|
C|-0-----0-----0-------------------0-|


* I think my version sounds kinda more similar to the original than the existing
TAB on this page, well for me it does, decide by your own. ROCK ON! *

rate it
Comments